ISO-10303-21;
HEADER;
/* Generated by software containing ST-Developer
 * from STEP Tools, Inc. (www.steptools.com) 
 */
/* OPTION: using custom renumber hook */

FILE_DESCRIPTION(
/* description */ ('STEP AP214'),
/* implementation_level */ '2;1');

FILE_NAME(
/* name */ '8073848_OGVM-30-G-N-G14F',
/* time_stamp */ '2024-09-13T10:25:58+02:00',
/* author */ ('License CC BY-ND 4.0'),
/* organization */ ('CADENAS'),
/* preprocessor_version */ 'ST-DEVELOPER v19.3',
/* originating_system */ 'PARTsolutions',
/* authorisation */ '  ');

FILE_SCHEMA (('AUTOMOTIVE_DESIGN {1 0 10303 214 3 1 1}'));
ENDSEC;

DATA;
#10=PROPERTY_DEFINITION_REPRESENTATION(#14,#12);
#11=PROPERTY_DEFINITION_REPRESENTATION(#15,#13);
#12=REPRESENTATION('',(#16),#635);
#13=REPRESENTATION('',(#17),#635);
#14=PROPERTY_DEFINITION('pmi validation property','',#640);
#15=PROPERTY_DEFINITION('pmi validation property','',#640);
#16=VALUE_REPRESENTATION_ITEM('number of annotations',COUNT_MEASURE(0.));
#17=VALUE_REPRESENTATION_ITEM('number of views',COUNT_MEASURE(0.));
#18=SHAPE_REPRESENTATION_RELATIONSHIP('','',#362,#19);
#19=ADVANCED_BREP_SHAPE_REPRESENTATION('',(#360),#635);
#20=DEGENERATE_TOROIDAL_SURFACE('',#382,5.14956172457861,23.0000000000002,
 .F.);
#21=DEGENERATE_TOROIDAL_SURFACE('',#392,1.67683787367591,16.0000000000001,
 .T.);
#22=TOROIDAL_SURFACE('',#380,10.75,0.999999999999999);
#23=TOROIDAL_SURFACE('',#384,9.31532414927191,6.00000000000005);
#24=TOROIDAL_SURFACE('',#386,14.0010317739725,1.00000000000002);
#25=TOROIDAL_SURFACE('',#390,14.7,0.150000000000001);
#26=CYLINDRICAL_SURFACE('',#372,8.25);
#27=CYLINDRICAL_SURFACE('',#378,10.75);
#28=CYLINDRICAL_SURFACE('',#400,3.);
#29=CYLINDRICAL_SURFACE('',#404,5.7225);
#30=CYLINDRICAL_SURFACE('',#410,1.5);
#31=B_SPLINE_CURVE_WITH_KNOTS('',3,(#540,#541,#542,#543),.UNSPECIFIED.,
 .F.,.F.,(4,4),(1.79541091180004E-6,0.000546394977920731),.UNSPECIFIED.);
#32=B_SPLINE_CURVE_WITH_KNOTS('',3,(#547,#548,#549,#550),.UNSPECIFIED.,
 .F.,.F.,(4,4),(0.00649583025403346,0.00703791140918198),.UNSPECIFIED.);
#33=B_SPLINE_CURVE_WITH_KNOTS('',3,(#552,#553,#554,#555),.UNSPECIFIED.,
 .F.,.F.,(4,4),(0.00649583025403346,0.00703791140918198),.UNSPECIFIED.);
#34=B_SPLINE_CURVE_WITH_KNOTS('',3,(#557,#558,#559,#560),.UNSPECIFIED.,
 .F.,.F.,(4,4),(1.79541091180004E-6,0.000546394977920731),.UNSPECIFIED.);
#35=CONICAL_SURFACE('',#368,8.05,0.785398163397448);
#36=CONICAL_SURFACE('',#370,8.05,0.785398163397448);
#37=CONICAL_SURFACE('',#388,15.,0.523598775598306);
#38=CONICAL_SURFACE('',#402,6.5785,0.785398163397448);
#39=CONICAL_SURFACE('',#408,1.7,0.785398163397452);
#40=CONICAL_SURFACE('',#412,1.5,0.785398163397451);
#41=CIRCLE('',#365,8.05);
#42=CIRCLE('',#366,8.05);
#43=CIRCLE('',#367,6.5785);
#44=CIRCLE('',#369,8.25);
#45=CIRCLE('',#371,8.25);
#46=CIRCLE('',#373,8.25);
#47=CIRCLE('',#374,8.25);
#48=CIRCLE('',#375,8.25);
#49=CIRCLE('',#377,10.75);
#50=CIRCLE('',#379,10.75);
#51=CIRCLE('',#381,10.0875365232924);
#52=CIRCLE('',#383,13.479);
#53=CIRCLE('',#385,14.9380000000005);
#54=CIRCLE('',#387,15.);
#55=CIRCLE('',#389,14.8259399483573);
#56=CIRCLE('',#391,14.55);
#57=CIRCLE('',#393,8.75);
#58=CIRCLE('',#395,3.);
#59=CIRCLE('',#401,3.);
#60=CIRCLE('',#403,5.7225);
#61=CIRCLE('',#405,5.7225);
#62=CIRCLE('',#407,1.7);
#63=CIRCLE('',#409,1.5);
#64=CIRCLE('',#411,1.5);
#65=CIRCLE('',#413,1.7);
#66=ORIENTED_EDGE('',*,*,#140,.T.);
#67=ORIENTED_EDGE('',*,*,#141,.F.);
#68=ORIENTED_EDGE('',*,*,#142,.T.);
#69=ORIENTED_EDGE('',*,*,#143,.F.);
#70=ORIENTED_EDGE('',*,*,#144,.T.);
#71=ORIENTED_EDGE('',*,*,#145,.F.);
#72=ORIENTED_EDGE('',*,*,#146,.F.);
#73=ORIENTED_EDGE('',*,*,#147,.F.);
#74=ORIENTED_EDGE('',*,*,#143,.T.);
#75=ORIENTED_EDGE('',*,*,#148,.F.);
#76=ORIENTED_EDGE('',*,*,#141,.T.);
#77=ORIENTED_EDGE('',*,*,#149,.F.);
#78=ORIENTED_EDGE('',*,*,#150,.F.);
#79=ORIENTED_EDGE('',*,*,#151,.F.);
#80=ORIENTED_EDGE('',*,*,#152,.F.);
#81=ORIENTED_EDGE('',*,*,#146,.T.);
#82=ORIENTED_EDGE('',*,*,#153,.F.);
#83=ORIENTED_EDGE('',*,*,#154,.F.);
#84=ORIENTED_EDGE('',*,*,#155,.F.);
#85=ORIENTED_EDGE('',*,*,#150,.T.);
#86=ORIENTED_EDGE('',*,*,#156,.F.);
#87=ORIENTED_EDGE('',*,*,#157,.F.);
#88=ORIENTED_EDGE('',*,*,#158,.F.);
#89=ORIENTED_EDGE('',*,*,#151,.T.);
#90=ORIENTED_EDGE('',*,*,#159,.F.);
#91=ORIENTED_EDGE('',*,*,#158,.T.);
#92=ORIENTED_EDGE('',*,*,#160,.F.);
#93=ORIENTED_EDGE('',*,*,#159,.T.);
#94=ORIENTED_EDGE('',*,*,#160,.T.);
#95=ORIENTED_EDGE('',*,*,#161,.F.);
#96=ORIENTED_EDGE('',*,*,#161,.T.);
#97=ORIENTED_EDGE('',*,*,#162,.F.);
#98=ORIENTED_EDGE('',*,*,#162,.T.);
#99=ORIENTED_EDGE('',*,*,#163,.F.);
#100=ORIENTED_EDGE('',*,*,#164,.F.);
#101=ORIENTED_EDGE('',*,*,#163,.T.);
#102=ORIENTED_EDGE('',*,*,#164,.T.);
#103=ORIENTED_EDGE('',*,*,#165,.F.);
#104=ORIENTED_EDGE('',*,*,#166,.F.);
#105=ORIENTED_EDGE('',*,*,#165,.T.);
#106=ORIENTED_EDGE('',*,*,#167,.F.);
#107=ORIENTED_EDGE('',*,*,#166,.T.);
#108=ORIENTED_EDGE('',*,*,#154,.T.);
#109=ORIENTED_EDGE('',*,*,#168,.F.);
#110=ORIENTED_EDGE('',*,*,#148,.T.);
#111=ORIENTED_EDGE('',*,*,#155,.T.);
#112=ORIENTED_EDGE('',*,*,#168,.T.);
#113=ORIENTED_EDGE('',*,*,#153,.T.);
#114=ORIENTED_EDGE('',*,*,#145,.T.);
#115=ORIENTED_EDGE('',*,*,#142,.F.);
#116=ORIENTED_EDGE('',*,*,#147,.T.);
#117=ORIENTED_EDGE('',*,*,#152,.T.);
#118=ORIENTED_EDGE('',*,*,#169,.T.);
#119=ORIENTED_EDGE('',*,*,#156,.T.);
#120=ORIENTED_EDGE('',*,*,#149,.T.);
#121=ORIENTED_EDGE('',*,*,#140,.F.);
#122=ORIENTED_EDGE('',*,*,#169,.F.);
#123=ORIENTED_EDGE('',*,*,#157,.T.);
#124=ORIENTED_EDGE('',*,*,#167,.T.);
#125=ORIENTED_EDGE('',*,*,#170,.F.);
#126=ORIENTED_EDGE('',*,*,#171,.T.);
#127=ORIENTED_EDGE('',*,*,#144,.F.);
#128=ORIENTED_EDGE('',*,*,#172,.T.);
#129=ORIENTED_EDGE('',*,*,#171,.F.);
#130=ORIENTED_EDGE('',*,*,#173,.T.);
#131=ORIENTED_EDGE('',*,*,#172,.F.);
#132=ORIENTED_EDGE('',*,*,#174,.T.);
#133=ORIENTED_EDGE('',*,*,#173,.F.);
#134=ORIENTED_EDGE('',*,*,#175,.T.);
#135=ORIENTED_EDGE('',*,*,#174,.F.);
#136=ORIENTED_EDGE('',*,*,#176,.T.);
#137=ORIENTED_EDGE('',*,*,#175,.F.);
#138=ORIENTED_EDGE('',*,*,#170,.T.);
#139=ORIENTED_EDGE('',*,*,#176,.F.);
#140=EDGE_CURVE('',#177,#178,#208,.T.);
#141=EDGE_CURVE('',#179,#178,#41,.T.);
#142=EDGE_CURVE('',#179,#180,#209,.T.);
#143=EDGE_CURVE('',#177,#180,#42,.T.);
#144=EDGE_CURVE('',#181,#181,#43,.T.);
#145=EDGE_CURVE('',#182,#180,#31,.T.);
#146=EDGE_CURVE('',#183,#182,#44,.T.);
#147=EDGE_CURVE('',#177,#183,#32,.T.);
#148=EDGE_CURVE('',#179,#184,#33,.T.);
#149=EDGE_CURVE('',#185,#178,#34,.T.);
#150=EDGE_CURVE('',#184,#185,#45,.T.);
#151=EDGE_CURVE('',#186,#186,#46,.T.);
#152=EDGE_CURVE('',#183,#187,#210,.T.);
#153=EDGE_CURVE('',#188,#182,#211,.F.);
#154=EDGE_CURVE('',#189,#188,#47,.T.);
#155=EDGE_CURVE('',#184,#189,#212,.T.);
#156=EDGE_CURVE('',#190,#185,#213,.F.);
#157=EDGE_CURVE('',#187,#190,#48,.T.);
#158=EDGE_CURVE('',#191,#191,#49,.T.);
#159=EDGE_CURVE('',#192,#192,#50,.T.);
#160=EDGE_CURVE('',#193,#193,#51,.T.);
#161=EDGE_CURVE('',#194,#194,#52,.T.);
#162=EDGE_CURVE('',#195,#195,#53,.T.);
#163=EDGE_CURVE('',#196,#196,#54,.T.);
#164=EDGE_CURVE('',#197,#197,#55,.T.);
#165=EDGE_CURVE('',#198,#198,#56,.T.);
#166=EDGE_CURVE('',#199,#199,#57,.T.);
#167=EDGE_CURVE('',#200,#200,#58,.F.);
#168=EDGE_CURVE('',#189,#188,#214,.T.);
#169=EDGE_CURVE('',#187,#190,#215,.T.);
#170=EDGE_CURVE('',#201,#201,#59,.T.);
#171=EDGE_CURVE('',#202,#202,#60,.T.);
#172=EDGE_CURVE('',#203,#203,#61,.T.);
#173=EDGE_CURVE('',#204,#204,#62,.T.);
#174=EDGE_CURVE('',#205,#205,#63,.T.);
#175=EDGE_CURVE('',#206,#206,#64,.T.);
#176=EDGE_CURVE('',#207,#207,#65,.T.);
#177=VERTEX_POINT('',#530);
#178=VERTEX_POINT('',#531);
#179=VERTEX_POINT('',#533);
#180=VERTEX_POINT('',#535);
#181=VERTEX_POINT('',#538);
#182=VERTEX_POINT('',#544);
#183=VERTEX_POINT('',#546);
#184=VERTEX_POINT('',#556);
#185=VERTEX_POINT('',#561);
#186=VERTEX_POINT('',#565);
#187=VERTEX_POINT('',#567);
#188=VERTEX_POINT('',#569);
#189=VERTEX_POINT('',#571);
#190=VERTEX_POINT('',#574);
#191=VERTEX_POINT('',#578);
#192=VERTEX_POINT('',#581);
#193=VERTEX_POINT('',#584);
#194=VERTEX_POINT('',#587);
#195=VERTEX_POINT('',#590);
#196=VERTEX_POINT('',#593);
#197=VERTEX_POINT('',#596);
#198=VERTEX_POINT('',#599);
#199=VERTEX_POINT('',#602);
#200=VERTEX_POINT('',#605);
#201=VERTEX_POINT('',#614);
#202=VERTEX_POINT('',#617);
#203=VERTEX_POINT('',#620);
#204=VERTEX_POINT('',#623);
#205=VERTEX_POINT('',#626);
#206=VERTEX_POINT('',#629);
#207=VERTEX_POINT('',#632);
#208=LINE('',#529,#216);
#209=LINE('',#534,#217);
#210=LINE('',#566,#218);
#211=LINE('',#568,#219);
#212=LINE('',#572,#220);
#213=LINE('',#573,#221);
#214=LINE('',#607,#222);
#215=LINE('',#610,#223);
#216=VECTOR('',#419,1000.);
#217=VECTOR('',#422,1000.);
#218=VECTOR('',#439,1000.);
#219=VECTOR('',#440,1000.);
#220=VECTOR('',#443,1000.);
#221=VECTOR('',#444,1000.);
#222=VECTOR('',#489,1000.);
#223=VECTOR('',#494,1000.);
#224=EDGE_LOOP('',(#66,#67,#68,#69));
#225=EDGE_LOOP('',(#70));
#226=EDGE_LOOP('',(#71,#72,#73,#74));
#227=EDGE_LOOP('',(#75,#76,#77,#78));
#228=EDGE_LOOP('',(#79));
#229=EDGE_LOOP('',(#80,#81,#82,#83,#84,#85,#86,#87));
#230=EDGE_LOOP('',(#88));
#231=EDGE_LOOP('',(#89));
#232=EDGE_LOOP('',(#90));
#233=EDGE_LOOP('',(#91));
#234=EDGE_LOOP('',(#92));
#235=EDGE_LOOP('',(#93));
#236=EDGE_LOOP('',(#94));
#237=EDGE_LOOP('',(#95));
#238=EDGE_LOOP('',(#96));
#239=EDGE_LOOP('',(#97));
#240=EDGE_LOOP('',(#98));
#241=EDGE_LOOP('',(#99));
#242=EDGE_LOOP('',(#100));
#243=EDGE_LOOP('',(#101));
#244=EDGE_LOOP('',(#102));
#245=EDGE_LOOP('',(#103));
#246=EDGE_LOOP('',(#104));
#247=EDGE_LOOP('',(#105));
#248=EDGE_LOOP('',(#106));
#249=EDGE_LOOP('',(#107));
#250=EDGE_LOOP('',(#108,#109));
#251=EDGE_LOOP('',(#110,#111,#112,#113,#114,#115));
#252=EDGE_LOOP('',(#116,#117,#118,#119,#120,#121));
#253=EDGE_LOOP('',(#122,#123));
#254=EDGE_LOOP('',(#124));
#255=EDGE_LOOP('',(#125));
#256=EDGE_LOOP('',(#126));
#257=EDGE_LOOP('',(#127));
#258=EDGE_LOOP('',(#128));
#259=EDGE_LOOP('',(#129));
#260=EDGE_LOOP('',(#130));
#261=EDGE_LOOP('',(#131));
#262=EDGE_LOOP('',(#132));
#263=EDGE_LOOP('',(#133));
#264=EDGE_LOOP('',(#134));
#265=EDGE_LOOP('',(#135));
#266=EDGE_LOOP('',(#136));
#267=EDGE_LOOP('',(#137));
#268=EDGE_LOOP('',(#138));
#269=EDGE_LOOP('',(#139));
#270=FACE_BOUND('',#224,.T.);
#271=FACE_BOUND('',#225,.T.);
#272=FACE_BOUND('',#226,.T.);
#273=FACE_BOUND('',#227,.T.);
#274=FACE_BOUND('',#228,.T.);
#275=FACE_BOUND('',#229,.T.);
#276=FACE_BOUND('',#230,.T.);
#277=FACE_BOUND('',#231,.T.);
#278=FACE_BOUND('',#232,.T.);
#279=FACE_BOUND('',#233,.T.);
#280=FACE_BOUND('',#234,.T.);
#281=FACE_BOUND('',#235,.T.);
#282=FACE_BOUND('',#236,.T.);
#283=FACE_BOUND('',#237,.T.);
#284=FACE_BOUND('',#238,.T.);
#285=FACE_BOUND('',#239,.T.);
#286=FACE_BOUND('',#240,.T.);
#287=FACE_BOUND('',#241,.T.);
#288=FACE_BOUND('',#242,.T.);
#289=FACE_BOUND('',#243,.T.);
#290=FACE_BOUND('',#244,.T.);
#291=FACE_BOUND('',#245,.T.);
#292=FACE_BOUND('',#246,.T.);
#293=FACE_BOUND('',#247,.T.);
#294=FACE_BOUND('',#248,.T.);
#295=FACE_BOUND('',#249,.T.);
#296=FACE_BOUND('',#250,.T.);
#297=FACE_BOUND('',#251,.T.);
#298=FACE_BOUND('',#252,.T.);
#299=FACE_BOUND('',#253,.T.);
#300=FACE_BOUND('',#254,.T.);
#301=FACE_BOUND('',#255,.T.);
#302=FACE_BOUND('',#256,.T.);
#303=FACE_BOUND('',#257,.T.);
#304=FACE_BOUND('',#258,.T.);
#305=FACE_BOUND('',#259,.T.);
#306=FACE_BOUND('',#260,.T.);
#307=FACE_BOUND('',#261,.T.);
#308=FACE_BOUND('',#262,.T.);
#309=FACE_BOUND('',#263,.T.);
#310=FACE_BOUND('',#264,.T.);
#311=FACE_BOUND('',#265,.T.);
#312=FACE_BOUND('',#266,.T.);
#313=FACE_BOUND('',#267,.T.);
#314=FACE_BOUND('',#268,.T.);
#315=FACE_BOUND('',#269,.T.);
#316=PLANE('',#364);
#317=PLANE('',#376);
#318=PLANE('',#394);
#319=PLANE('',#396);
#320=PLANE('',#397);
#321=PLANE('',#398);
#322=PLANE('',#399);
#323=PLANE('',#406);
#324=PLANE('',#414);
#325=ADVANCED_FACE('',(#270,#271),#316,.F.);
#326=ADVANCED_FACE('',(#272),#35,.T.);
#327=ADVANCED_FACE('',(#273),#36,.T.);
#328=ADVANCED_FACE('',(#274,#275),#26,.T.);
#329=ADVANCED_FACE('',(#276,#277),#317,.F.);
#330=ADVANCED_FACE('',(#278,#279),#27,.T.);
#331=ADVANCED_FACE('',(#280,#281),#22,.F.);
#332=ADVANCED_FACE('',(#282,#283),#20,.F.);
#333=ADVANCED_FACE('',(#284,#285),#23,.T.);
#334=ADVANCED_FACE('',(#286,#287),#24,.T.);
#335=ADVANCED_FACE('',(#288,#289),#37,.T.);
#336=ADVANCED_FACE('',(#290,#291),#25,.T.);
#337=ADVANCED_FACE('',(#292,#293),#21,.F.);
#338=ADVANCED_FACE('',(#294,#295),#318,.F.);
#339=ADVANCED_FACE('',(#296),#319,.T.);
#340=ADVANCED_FACE('',(#297),#320,.T.);
#341=ADVANCED_FACE('',(#298),#321,.T.);
#342=ADVANCED_FACE('',(#299),#322,.T.);
#343=ADVANCED_FACE('',(#300,#301),#28,.F.);
#344=ADVANCED_FACE('',(#302,#303),#38,.F.);
#345=ADVANCED_FACE('',(#304,#305),#29,.F.);
#346=ADVANCED_FACE('',(#306,#307),#323,.T.);
#347=ADVANCED_FACE('',(#308,#309),#39,.F.);
#348=ADVANCED_FACE('',(#310,#311),#30,.F.);
#349=ADVANCED_FACE('',(#312,#313),#40,.F.);
#350=ADVANCED_FACE('',(#314,#315),#324,.T.);
#351=CLOSED_SHELL('',(#325,#326,#327,#328,#329,#330,#331,#332,#333,#334,
#335,#336,#337,#338,#339,#340,#341,#342,#343,#344,#345,#346,#347,#348,#349,
#350));
#352=STYLED_ITEM('',(#353),#360);
#353=PRESENTATION_STYLE_ASSIGNMENT((#354));
#354=SURFACE_STYLE_USAGE(.BOTH.,#355);
#355=SURFACE_SIDE_STYLE('',(#356));
#356=SURFACE_STYLE_FILL_AREA(#357);
#357=FILL_AREA_STYLE('',(#358));
#358=FILL_AREA_STYLE_COLOUR('',#359);
#359=COLOUR_RGB('',0.689999997615814,0.689999997615814,0.689999997615814);
#360=MANIFOLD_SOLID_BREP('8073848 OGVM-30-G-N-G14F---(high)',#351);
#361=SHAPE_DEFINITION_REPRESENTATION(#640,#362);
#362=SHAPE_REPRESENTATION('8073848 OGVM-30-G-N-G14F---(high)',(#363),#635);
#363=AXIS2_PLACEMENT_3D('',#527,#415,#416);
#364=AXIS2_PLACEMENT_3D('',#528,#417,#418);
#365=AXIS2_PLACEMENT_3D('',#532,#420,#421);
#366=AXIS2_PLACEMENT_3D('',#536,#423,#424);
#367=AXIS2_PLACEMENT_3D('',#537,#425,#426);
#368=AXIS2_PLACEMENT_3D('',#539,#427,#428);
#369=AXIS2_PLACEMENT_3D('',#545,#429,#430);
#370=AXIS2_PLACEMENT_3D('',#551,#431,#432);
#371=AXIS2_PLACEMENT_3D('',#562,#433,#434);
#372=AXIS2_PLACEMENT_3D('',#563,#435,#436);
#373=AXIS2_PLACEMENT_3D('',#564,#437,#438);
#374=AXIS2_PLACEMENT_3D('',#570,#441,#442);
#375=AXIS2_PLACEMENT_3D('',#575,#445,#446);
#376=AXIS2_PLACEMENT_3D('',#576,#447,#448);
#377=AXIS2_PLACEMENT_3D('',#577,#449,#450);
#378=AXIS2_PLACEMENT_3D('',#579,#451,#452);
#379=AXIS2_PLACEMENT_3D('',#580,#453,#454);
#380=AXIS2_PLACEMENT_3D('',#582,#455,#456);
#381=AXIS2_PLACEMENT_3D('',#583,#457,#458);
#382=AXIS2_PLACEMENT_3D('',#585,#459,#460);
#383=AXIS2_PLACEMENT_3D('',#586,#461,#462);
#384=AXIS2_PLACEMENT_3D('',#588,#463,#464);
#385=AXIS2_PLACEMENT_3D('',#589,#465,#466);
#386=AXIS2_PLACEMENT_3D('',#591,#467,#468);
#387=AXIS2_PLACEMENT_3D('',#592,#469,#470);
#388=AXIS2_PLACEMENT_3D('',#594,#471,#472);
#389=AXIS2_PLACEMENT_3D('',#595,#473,#474);
#390=AXIS2_PLACEMENT_3D('',#597,#475,#476);
#391=AXIS2_PLACEMENT_3D('',#598,#477,#478);
#392=AXIS2_PLACEMENT_3D('',#600,#479,#480);
#393=AXIS2_PLACEMENT_3D('',#601,#481,#482);
#394=AXIS2_PLACEMENT_3D('',#603,#483,#484);
#395=AXIS2_PLACEMENT_3D('',#604,#485,#486);
#396=AXIS2_PLACEMENT_3D('',#606,#487,#488);
#397=AXIS2_PLACEMENT_3D('',#608,#490,#491);
#398=AXIS2_PLACEMENT_3D('',#609,#492,#493);
#399=AXIS2_PLACEMENT_3D('',#611,#495,#496);
#400=AXIS2_PLACEMENT_3D('',#612,#497,#498);
#401=AXIS2_PLACEMENT_3D('',#613,#499,#500);
#402=AXIS2_PLACEMENT_3D('',#615,#501,#502);
#403=AXIS2_PLACEMENT_3D('',#616,#503,#504);
#404=AXIS2_PLACEMENT_3D('',#618,#505,#506);
#405=AXIS2_PLACEMENT_3D('',#619,#507,#508);
#406=AXIS2_PLACEMENT_3D('',#621,#509,#510);
#407=AXIS2_PLACEMENT_3D('',#622,#511,#512);
#408=AXIS2_PLACEMENT_3D('',#624,#513,#514);
#409=AXIS2_PLACEMENT_3D('',#625,#515,#516);
#410=AXIS2_PLACEMENT_3D('',#627,#517,#518);
#411=AXIS2_PLACEMENT_3D('',#628,#519,#520);
#412=AXIS2_PLACEMENT_3D('',#630,#521,#522);
#413=AXIS2_PLACEMENT_3D('',#631,#523,#524);
#414=AXIS2_PLACEMENT_3D('',#633,#525,#526);
#415=DIRECTION('',(0.,0.,1.));
#416=DIRECTION('',(1.,0.,0.));
#417=DIRECTION('',(0.,-1.,0.));
#418=DIRECTION('',(0.,0.,-1.));
#419=DIRECTION('',(0.,0.,-1.));
#420=DIRECTION('',(0.,-1.,0.));
#421=DIRECTION('',(0.,0.,-1.));
#422=DIRECTION('',(0.,0.,1.));
#423=DIRECTION('',(0.,-1.,0.));
#424=DIRECTION('',(0.,0.,-1.));
#425=DIRECTION('',(0.,-1.,0.));
#426=DIRECTION('',(0.,0.,-1.));
#427=DIRECTION('',(0.,-1.,0.));
#428=DIRECTION('',(0.,0.,-1.));
#429=DIRECTION('',(0.,-1.,0.));
#430=DIRECTION('',(0.,0.,-1.));
#431=DIRECTION('',(0.,-1.,0.));
#432=DIRECTION('',(0.,0.,-1.));
#433=DIRECTION('',(0.,-1.,0.));
#434=DIRECTION('',(0.,0.,-1.));
#435=DIRECTION('',(0.,-1.,0.));
#436=DIRECTION('',(0.,0.,-1.));
#437=DIRECTION('',(0.,-1.,0.));
#438=DIRECTION('',(0.,0.,-1.));
#439=DIRECTION('',(0.,-1.,0.));
#440=DIRECTION('',(0.,-1.,0.));
#441=DIRECTION('',(0.,1.,0.));
#442=DIRECTION('',(0.,0.,1.));
#443=DIRECTION('',(0.,-1.,0.));
#444=DIRECTION('',(0.,-1.,0.));
#445=DIRECTION('',(0.,1.,0.));
#446=DIRECTION('',(0.,0.,1.));
#447=DIRECTION('',(0.,-1.,0.));
#448=DIRECTION('',(0.,0.,-1.));
#449=DIRECTION('',(0.,-1.,0.));
#450=DIRECTION('',(0.,0.,-1.));
#451=DIRECTION('',(0.,-1.,0.));
#452=DIRECTION('',(0.,0.,-1.));
#453=DIRECTION('',(0.,-1.,0.));
#454=DIRECTION('',(0.,0.,-1.));
#455=DIRECTION('',(0.,-1.,0.));
#456=DIRECTION('',(0.,0.,-1.));
#457=DIRECTION('',(0.,-1.,0.));
#458=DIRECTION('',(0.,0.,-1.));
#459=DIRECTION('',(0.,-1.,0.));
#460=DIRECTION('',(0.,0.,-1.));
#461=DIRECTION('',(0.,-1.,0.));
#462=DIRECTION('',(0.,0.,-1.));
#463=DIRECTION('',(0.,-1.,0.));
#464=DIRECTION('',(0.,0.,-1.));
#465=DIRECTION('',(0.,-1.,0.));
#466=DIRECTION('',(0.,0.,-1.));
#467=DIRECTION('',(0.,-1.,0.));
#468=DIRECTION('',(0.,0.,-1.));
#469=DIRECTION('',(0.,-1.,0.));
#470=DIRECTION('',(0.,0.,-1.));
#471=DIRECTION('',(0.,1.,0.));
#472=DIRECTION('',(0.,0.,1.));
#473=DIRECTION('',(0.,-1.,0.));
#474=DIRECTION('',(0.,0.,-1.));
#475=DIRECTION('',(0.,-1.,0.));
#476=DIRECTION('',(0.,0.,-1.));
#477=DIRECTION('',(0.,-1.,0.));
#478=DIRECTION('',(0.,0.,-1.));
#479=DIRECTION('',(0.,-1.,0.));
#480=DIRECTION('',(0.,0.,-1.));
#481=DIRECTION('',(0.,-1.,0.));
#482=DIRECTION('',(0.,0.,-1.));
#483=DIRECTION('',(0.,1.,0.));
#484=DIRECTION('',(0.,0.,1.));
#485=DIRECTION('',(0.,1.,0.));
#486=DIRECTION('',(0.,0.,1.));
#487=DIRECTION('',(0.,1.,0.));
#488=DIRECTION('',(0.,0.,1.));
#489=DIRECTION('',(0.,0.,1.));
#490=DIRECTION('',(-1.,0.,0.));
#491=DIRECTION('',(0.,0.,1.));
#492=DIRECTION('',(1.,0.,0.));
#493=DIRECTION('',(0.,0.,-1.));
#494=DIRECTION('',(0.,0.,-1.));
#495=DIRECTION('',(0.,1.,0.));
#496=DIRECTION('',(0.,0.,1.));
#497=DIRECTION('',(0.,-1.,0.));
#498=DIRECTION('',(0.,0.,-1.));
#499=DIRECTION('',(0.,-1.,0.));
#500=DIRECTION('',(0.,0.,-1.));
#501=DIRECTION('',(0.,1.,0.));
#502=DIRECTION('',(0.,0.,1.));
#503=DIRECTION('',(0.,-1.,0.));
#504=DIRECTION('',(0.,0.,-1.));
#505=DIRECTION('',(0.,-1.,0.));
#506=DIRECTION('',(0.,0.,-1.));
#507=DIRECTION('',(0.,-1.,0.));
#508=DIRECTION('',(0.,0.,-1.));
#509=DIRECTION('',(0.,1.,0.));
#510=DIRECTION('',(0.,0.,1.));
#511=DIRECTION('',(0.,-1.,0.));
#512=DIRECTION('',(0.,0.,-1.));
#513=DIRECTION('',(0.,1.,0.));
#514=DIRECTION('',(0.,0.,1.));
#515=DIRECTION('',(0.,-1.,0.));
#516=DIRECTION('',(0.,0.,-1.));
#517=DIRECTION('',(0.,-1.,0.));
#518=DIRECTION('',(0.,0.,-1.));
#519=DIRECTION('',(0.,-1.,0.));
#520=DIRECTION('',(0.,0.,-1.));
#521=DIRECTION('',(0.,-1.,0.));
#522=DIRECTION('',(0.,0.,-1.));
#523=DIRECTION('',(0.,-1.,0.));
#524=DIRECTION('',(0.,0.,-1.));
#525=DIRECTION('',(0.,-1.,0.));
#526=DIRECTION('',(0.,0.,-1.));
#527=CARTESIAN_POINT('',(0.,0.,0.));
#528=CARTESIAN_POINT('',(0.,22.,0.));
#529=CARTESIAN_POINT('',(7.5,22.,15.));
#530=CARTESIAN_POINT('',(7.5,22.,2.92446576317796));
#531=CARTESIAN_POINT('',(7.5,22.,-2.92446576317796));
#532=CARTESIAN_POINT('',(0.,22.,0.));
#533=CARTESIAN_POINT('',(-7.5,22.,-2.92446576317796));
#534=CARTESIAN_POINT('',(-7.5,22.,-15.));
#535=CARTESIAN_POINT('',(-7.5,22.,2.92446576317796));
#536=CARTESIAN_POINT('',(0.,22.,0.));
#537=CARTESIAN_POINT('',(0.,22.,0.));
#538=CARTESIAN_POINT('',(0.,22.,-6.5785));
#539=CARTESIAN_POINT('',(0.,22.,0.));
#540=CARTESIAN_POINT('',(-7.5,21.8,3.43693177121688));
#541=CARTESIAN_POINT('',(-7.5,21.8707636658829,3.26707089459929));
#542=CARTESIAN_POINT('',(-7.5,21.9375805083195,3.09628412205731));
#543=CARTESIAN_POINT('',(-7.5,22.,2.92446576317796));
#544=CARTESIAN_POINT('',(-7.5,21.8,3.43693177121688));
#545=CARTESIAN_POINT('',(0.,21.8,0.));
#546=CARTESIAN_POINT('',(7.5,21.8,3.43693177121688));
#547=CARTESIAN_POINT('',(7.5,22.,2.92446576317796));
#548=CARTESIAN_POINT('',(7.5,21.9373795015704,3.09683742117638));
#549=CARTESIAN_POINT('',(7.5,21.8705452282364,3.26759523162566));
#550=CARTESIAN_POINT('',(7.5,21.8000000000001,3.43693177121691));
#551=CARTESIAN_POINT('',(0.,22.,0.));
#552=CARTESIAN_POINT('',(-7.5,22.,-2.92446576317796));
#553=CARTESIAN_POINT('',(-7.5,21.9373795015704,-3.09683742117638));
#554=CARTESIAN_POINT('',(-7.5,21.8705452282364,-3.26759523162566));
#555=CARTESIAN_POINT('',(-7.5,21.8000000000001,-3.43693177121691));
#556=CARTESIAN_POINT('',(-7.5,21.8,-3.43693177121688));
#557=CARTESIAN_POINT('',(7.5,21.8,-3.43693177121688));
#558=CARTESIAN_POINT('',(7.5,21.8707636658829,-3.26707089459929));
#559=CARTESIAN_POINT('',(7.5,21.9375805083195,-3.09628412205731));
#560=CARTESIAN_POINT('',(7.5,22.,-2.92446576317796));
#561=CARTESIAN_POINT('',(7.5,21.8,-3.43693177121688));
#562=CARTESIAN_POINT('',(0.,21.8,0.));
#563=CARTESIAN_POINT('',(0.,0.,0.));
#564=CARTESIAN_POINT('',(0.,15.,0.));
#565=CARTESIAN_POINT('',(0.,15.,-8.25));
#566=CARTESIAN_POINT('',(7.5,0.,3.43693177121688));
#567=CARTESIAN_POINT('',(7.5,16.,3.43693177121688));
#568=CARTESIAN_POINT('',(-7.5,0.,3.43693177121688));
#569=CARTESIAN_POINT('',(-7.5,16.,3.43693177121688));
#570=CARTESIAN_POINT('',(0.,16.,0.));
#571=CARTESIAN_POINT('',(-7.5,16.,-3.43693177121688));
#572=CARTESIAN_POINT('',(-7.5,0.,-3.43693177121688));
#573=CARTESIAN_POINT('',(7.5,0.,-3.43693177121688));
#574=CARTESIAN_POINT('',(7.5,16.,-3.43693177121688));
#575=CARTESIAN_POINT('',(0.,16.,0.));
#576=CARTESIAN_POINT('',(8.25,15.,0.));
#577=CARTESIAN_POINT('',(0.,15.,0.));
#578=CARTESIAN_POINT('',(0.,15.,-10.75));
#579=CARTESIAN_POINT('',(0.,0.,0.));
#580=CARTESIAN_POINT('',(0.,8.388,0.));
#581=CARTESIAN_POINT('',(0.,8.388,-10.75));
#582=CARTESIAN_POINT('',(0.,7.388,0.));
#583=CARTESIAN_POINT('',(0.,6.63890578561271,0.));
#584=CARTESIAN_POINT('',(0.,6.63890578561271,-10.0875365232924));
#585=CARTESIAN_POINT('',(0.,-10.5898735380867,0.));
#586=CARTESIAN_POINT('',(0.,2.89999999999999,0.));
#587=CARTESIAN_POINT('',(0.,2.89999999999999,-13.479));
#588=CARTESIAN_POINT('',(0.,-1.42016242866681,0.));
#589=CARTESIAN_POINT('',(0.,0.673999999998786,0.));
#590=CARTESIAN_POINT('',(0.,0.673999999998786,-14.9380000000005));
#591=CARTESIAN_POINT('',(0.,0.324585427586492,0.));
#592=CARTESIAN_POINT('',(0.,0.370000000000006,0.));
#593=CARTESIAN_POINT('',(0.,0.370000000000006,-15.));
#594=CARTESIAN_POINT('',(0.,0.370000000000006,0.));
#595=CARTESIAN_POINT('',(0.,0.0685191469867997,0.));
#596=CARTESIAN_POINT('',(0.,0.0685191469867997,-14.8259399483573));
#597=CARTESIAN_POINT('',(0.,0.149999999999998,0.));
#598=CARTESIAN_POINT('',(0.,0.150000000000001,0.));
#599=CARTESIAN_POINT('',(0.,0.150000000000001,-14.55));
#600=CARTESIAN_POINT('',(0.,-9.35166810983087,0.));
#601=CARTESIAN_POINT('',(0.,5.,0.));
#602=CARTESIAN_POINT('',(0.,5.,-8.75));
#603=CARTESIAN_POINT('',(8.75,5.,0.));
#604=CARTESIAN_POINT('',(0.,5.,0.));
#605=CARTESIAN_POINT('',(0.,5.,3.));
#606=CARTESIAN_POINT('',(0.,16.,0.));
#607=CARTESIAN_POINT('',(-7.5,16.,-15.));
#608=CARTESIAN_POINT('',(-7.5,16.,-15.));
#609=CARTESIAN_POINT('',(7.5,16.,15.));
#610=CARTESIAN_POINT('',(7.5,16.,15.));
#611=CARTESIAN_POINT('',(0.,16.,0.));
#612=CARTESIAN_POINT('',(0.,0.,0.));
#613=CARTESIAN_POINT('',(0.,8.,0.));
#614=CARTESIAN_POINT('',(0.,8.,-3.));
#615=CARTESIAN_POINT('',(0.,22.,0.));
#616=CARTESIAN_POINT('',(0.,21.144,0.));
#617=CARTESIAN_POINT('',(0.,21.144,-5.7225));
#618=CARTESIAN_POINT('',(0.,0.,0.));
#619=CARTESIAN_POINT('',(0.,10.,0.));
#620=CARTESIAN_POINT('',(0.,10.,-5.7225));
#621=CARTESIAN_POINT('',(5.7225,10.,0.));
#622=CARTESIAN_POINT('',(0.,10.,0.));
#623=CARTESIAN_POINT('',(0.,10.,-1.7));
#624=CARTESIAN_POINT('',(0.,10.,0.));
#625=CARTESIAN_POINT('',(0.,9.8,0.));
#626=CARTESIAN_POINT('',(0.,9.8,-1.5));
#627=CARTESIAN_POINT('',(0.,0.,0.));
#628=CARTESIAN_POINT('',(0.,8.2,0.));
#629=CARTESIAN_POINT('',(0.,8.2,-1.5));
#630=CARTESIAN_POINT('',(0.,8.2,0.));
#631=CARTESIAN_POINT('',(0.,8.,0.));
#632=CARTESIAN_POINT('',(0.,8.,-1.7));
#633=CARTESIAN_POINT('',(1.7,8.,0.));
#634=MECHANICAL_DESIGN_GEOMETRIC_PRESENTATION_REPRESENTATION('',(#352),
#635);
#635=(
GEOMETRIC_REPRESENTATION_CONTEXT(3)
GLOBAL_UNCERTAINTY_ASSIGNED_CONTEXT((#636))
GLOBAL_UNIT_ASSIGNED_CONTEXT((#639,#638,#637))
REPRESENTATION_CONTEXT('8073848 OGVM-30-G-N-G14F---(high)',
'TOP_LEVEL_ASSEMBLY_PART')
);
#636=UNCERTAINTY_MEASURE_WITH_UNIT(LENGTH_MEASURE(0.005),#639,
'DISTANCE_ACCURACY_VALUE','Maximum Tolerance applied to model');
#637=(
NAMED_UNIT(*)
SI_UNIT($,.STERADIAN.)
SOLID_ANGLE_UNIT()
);
#638=(
NAMED_UNIT(*)
PLANE_ANGLE_UNIT()
SI_UNIT($,.RADIAN.)
);
#639=(
LENGTH_UNIT()
NAMED_UNIT(*)
SI_UNIT(.MILLI.,.METRE.)
);
#640=PRODUCT_DEFINITION_SHAPE('','',#641);
#641=PRODUCT_DEFINITION('','',#643,#642);
#642=PRODUCT_DEFINITION_CONTEXT('',#649,'design');
#643=PRODUCT_DEFINITION_FORMATION_WITH_SPECIFIED_SOURCE('','',#645,
 .NOT_KNOWN.);
#644=PRODUCT_RELATED_PRODUCT_CATEGORY('','',(#645));
#645=PRODUCT('8073848 OGVM-30-G-N-G14F---(high)',
'8073848 OGVM-30-G-N-G14F---(high)','8073848 OGVM-30-G-N-G14F---(high)',
(#647));
#646=PRODUCT_CATEGORY('','');
#647=PRODUCT_CONTEXT('',#649,'mechanical');
#648=APPLICATION_PROTOCOL_DEFINITION('international standard',
'automotive_design',2010,#649);
#649=APPLICATION_CONTEXT(
'core data for automotive mechanical design processes');
ENDSEC;
END-ISO-10303-21;
