ISO-10303-21;
HEADER;
/* Generated by software containing ST-Developer
 * from STEP Tools, Inc. (www.steptools.com) 
 */
/* OPTION: using custom renumber hook */

FILE_DESCRIPTION(
/* description */ ('STEP AP214'),
/* implementation_level */ '2;1');

FILE_NAME(
/* name */ '8088986_PAGN-26-1M-G18S',
/* time_stamp */ '2024-09-13T13:30:41+02:00',
/* author */ ('License CC BY-ND 4.0'),
/* organization */ ('CADENAS'),
/* preprocessor_version */ 'ST-DEVELOPER v19.3',
/* originating_system */ 'PARTsolutions',
/* authorisation */ '  ');

FILE_SCHEMA (('AUTOMOTIVE_DESIGN {1 0 10303 214 3 1 1}'));
ENDSEC;

DATA;
#10=PROPERTY_DEFINITION_REPRESENTATION(#14,#12);
#11=PROPERTY_DEFINITION_REPRESENTATION(#15,#13);
#12=REPRESENTATION('',(#16),#363);
#13=REPRESENTATION('',(#17),#363);
#14=PROPERTY_DEFINITION('pmi validation property','',#368);
#15=PROPERTY_DEFINITION('pmi validation property','',#368);
#16=VALUE_REPRESENTATION_ITEM('number of annotations',COUNT_MEASURE(0.));
#17=VALUE_REPRESENTATION_ITEM('number of views',COUNT_MEASURE(0.));
#18=SHAPE_REPRESENTATION_RELATIONSHIP('','',#209,#19);
#19=ADVANCED_BREP_SHAPE_REPRESENTATION('',(#207),#363);
#20=CYLINDRICAL_SURFACE('',#221,3.1);
#21=CYLINDRICAL_SURFACE('',#229,3.7);
#22=CYLINDRICAL_SURFACE('',#235,4.864);
#23=TOROIDAL_SURFACE('',#215,3.34999986012496,0.2);
#24=TOROIDAL_SURFACE('',#219,3.3,0.199999999999992);
#25=TOROIDAL_SURFACE('',#223,3.3,0.2);
#26=TOROIDAL_SURFACE('',#227,3.50000000000001,0.199999999999992);
#27=TOROIDAL_SURFACE('',#241,12.3000958918397,0.500000000000004);
#28=CONICAL_SURFACE('',#213,3.2303846178543,1.04719755119659);
#29=CONICAL_SURFACE('',#233,4.283,0.78539816339745);
#30=CONICAL_SURFACE('',#239,13.,0.0121125850088406);
#31=ORIENTED_EDGE('',*,*,#63,.F.);
#32=ORIENTED_EDGE('',*,*,#64,.F.);
#33=ORIENTED_EDGE('',*,*,#63,.T.);
#34=ORIENTED_EDGE('',*,*,#64,.T.);
#35=ORIENTED_EDGE('',*,*,#65,.F.);
#36=ORIENTED_EDGE('',*,*,#66,.F.);
#37=ORIENTED_EDGE('',*,*,#65,.T.);
#38=ORIENTED_EDGE('',*,*,#67,.F.);
#39=ORIENTED_EDGE('',*,*,#66,.T.);
#40=ORIENTED_EDGE('',*,*,#68,.F.);
#41=ORIENTED_EDGE('',*,*,#67,.T.);
#42=ORIENTED_EDGE('',*,*,#69,.F.);
#43=ORIENTED_EDGE('',*,*,#68,.T.);
#44=ORIENTED_EDGE('',*,*,#70,.F.);
#45=ORIENTED_EDGE('',*,*,#69,.T.);
#46=ORIENTED_EDGE('',*,*,#70,.T.);
#47=ORIENTED_EDGE('',*,*,#71,.F.);
#48=ORIENTED_EDGE('',*,*,#72,.F.);
#49=ORIENTED_EDGE('',*,*,#71,.T.);
#50=ORIENTED_EDGE('',*,*,#73,.F.);
#51=ORIENTED_EDGE('',*,*,#72,.T.);
#52=ORIENTED_EDGE('',*,*,#74,.F.);
#53=ORIENTED_EDGE('',*,*,#73,.T.);
#54=ORIENTED_EDGE('',*,*,#75,.F.);
#55=ORIENTED_EDGE('',*,*,#74,.T.);
#56=ORIENTED_EDGE('',*,*,#76,.F.);
#57=ORIENTED_EDGE('',*,*,#75,.T.);
#58=ORIENTED_EDGE('',*,*,#77,.F.);
#59=ORIENTED_EDGE('',*,*,#76,.T.);
#60=ORIENTED_EDGE('',*,*,#77,.T.);
#61=ORIENTED_EDGE('',*,*,#78,.F.);
#62=ORIENTED_EDGE('',*,*,#78,.T.);
#63=EDGE_CURVE('',#79,#79,#95,.T.);
#64=EDGE_CURVE('',#80,#80,#96,.T.);
#65=EDGE_CURVE('',#81,#81,#97,.T.);
#66=EDGE_CURVE('',#82,#82,#98,.T.);
#67=EDGE_CURVE('',#83,#83,#99,.T.);
#68=EDGE_CURVE('',#84,#84,#100,.T.);
#69=EDGE_CURVE('',#85,#85,#101,.T.);
#70=EDGE_CURVE('',#86,#86,#102,.T.);
#71=EDGE_CURVE('',#87,#87,#103,.T.);
#72=EDGE_CURVE('',#88,#88,#104,.T.);
#73=EDGE_CURVE('',#89,#89,#105,.T.);
#74=EDGE_CURVE('',#90,#90,#106,.T.);
#75=EDGE_CURVE('',#91,#91,#107,.T.);
#76=EDGE_CURVE('',#92,#92,#108,.T.);
#77=EDGE_CURVE('',#93,#93,#109,.T.);
#78=EDGE_CURVE('',#94,#94,#110,.T.);
#79=VERTEX_POINT('',#315);
#80=VERTEX_POINT('',#318);
#81=VERTEX_POINT('',#321);
#82=VERTEX_POINT('',#324);
#83=VERTEX_POINT('',#327);
#84=VERTEX_POINT('',#330);
#85=VERTEX_POINT('',#333);
#86=VERTEX_POINT('',#336);
#87=VERTEX_POINT('',#339);
#88=VERTEX_POINT('',#342);
#89=VERTEX_POINT('',#345);
#90=VERTEX_POINT('',#348);
#91=VERTEX_POINT('',#351);
#92=VERTEX_POINT('',#354);
#93=VERTEX_POINT('',#357);
#94=VERTEX_POINT('',#360);
#95=CIRCLE('',#212,3.2303846178543);
#96=CIRCLE('',#214,3.44999986012514);
#97=CIRCLE('',#216,3.34999986012517);
#98=CIRCLE('',#218,3.3);
#99=CIRCLE('',#220,3.1);
#100=CIRCLE('',#222,3.1);
#101=CIRCLE('',#224,3.3);
#102=CIRCLE('',#226,3.5);
#103=CIRCLE('',#228,3.7);
#104=CIRCLE('',#230,3.7);
#105=CIRCLE('',#232,4.283);
#106=CIRCLE('',#234,4.864);
#107=CIRCLE('',#236,4.864);
#108=CIRCLE('',#238,13.);
#109=CIRCLE('',#240,12.8000592136092);
#110=CIRCLE('',#242,12.3000958918397);
#111=EDGE_LOOP('',(#31));
#112=EDGE_LOOP('',(#32));
#113=EDGE_LOOP('',(#33));
#114=EDGE_LOOP('',(#34));
#115=EDGE_LOOP('',(#35));
#116=EDGE_LOOP('',(#36));
#117=EDGE_LOOP('',(#37));
#118=EDGE_LOOP('',(#38));
#119=EDGE_LOOP('',(#39));
#120=EDGE_LOOP('',(#40));
#121=EDGE_LOOP('',(#41));
#122=EDGE_LOOP('',(#42));
#123=EDGE_LOOP('',(#43));
#124=EDGE_LOOP('',(#44));
#125=EDGE_LOOP('',(#45));
#126=EDGE_LOOP('',(#46));
#127=EDGE_LOOP('',(#47));
#128=EDGE_LOOP('',(#48));
#129=EDGE_LOOP('',(#49));
#130=EDGE_LOOP('',(#50));
#131=EDGE_LOOP('',(#51));
#132=EDGE_LOOP('',(#52));
#133=EDGE_LOOP('',(#53));
#134=EDGE_LOOP('',(#54));
#135=EDGE_LOOP('',(#55));
#136=EDGE_LOOP('',(#56));
#137=EDGE_LOOP('',(#57));
#138=EDGE_LOOP('',(#58));
#139=EDGE_LOOP('',(#59));
#140=EDGE_LOOP('',(#60));
#141=EDGE_LOOP('',(#61));
#142=EDGE_LOOP('',(#62));
#143=FACE_BOUND('',#111,.T.);
#144=FACE_BOUND('',#112,.T.);
#145=FACE_BOUND('',#113,.T.);
#146=FACE_BOUND('',#114,.T.);
#147=FACE_BOUND('',#115,.T.);
#148=FACE_BOUND('',#116,.T.);
#149=FACE_BOUND('',#117,.T.);
#150=FACE_BOUND('',#118,.T.);
#151=FACE_BOUND('',#119,.T.);
#152=FACE_BOUND('',#120,.T.);
#153=FACE_BOUND('',#121,.T.);
#154=FACE_BOUND('',#122,.T.);
#155=FACE_BOUND('',#123,.T.);
#156=FACE_BOUND('',#124,.T.);
#157=FACE_BOUND('',#125,.T.);
#158=FACE_BOUND('',#126,.T.);
#159=FACE_BOUND('',#127,.T.);
#160=FACE_BOUND('',#128,.T.);
#161=FACE_BOUND('',#129,.T.);
#162=FACE_BOUND('',#130,.T.);
#163=FACE_BOUND('',#131,.T.);
#164=FACE_BOUND('',#132,.T.);
#165=FACE_BOUND('',#133,.T.);
#166=FACE_BOUND('',#134,.T.);
#167=FACE_BOUND('',#135,.T.);
#168=FACE_BOUND('',#136,.T.);
#169=FACE_BOUND('',#137,.T.);
#170=FACE_BOUND('',#138,.T.);
#171=FACE_BOUND('',#139,.T.);
#172=FACE_BOUND('',#140,.T.);
#173=FACE_BOUND('',#141,.T.);
#174=FACE_BOUND('',#142,.T.);
#175=PLANE('',#211);
#176=PLANE('',#217);
#177=PLANE('',#225);
#178=PLANE('',#231);
#179=PLANE('',#237);
#180=PLANE('',#243);
#181=ADVANCED_FACE('',(#143),#175,.F.);
#182=ADVANCED_FACE('',(#144,#145),#28,.T.);
#183=ADVANCED_FACE('',(#146,#147),#23,.T.);
#184=ADVANCED_FACE('',(#148,#149),#176,.F.);
#185=ADVANCED_FACE('',(#150,#151),#24,.F.);
#186=ADVANCED_FACE('',(#152,#153),#20,.T.);
#187=ADVANCED_FACE('',(#154,#155),#25,.F.);
#188=ADVANCED_FACE('',(#156,#157),#177,.F.);
#189=ADVANCED_FACE('',(#158,#159),#26,.T.);
#190=ADVANCED_FACE('',(#160,#161),#21,.T.);
#191=ADVANCED_FACE('',(#162,#163),#178,.F.);
#192=ADVANCED_FACE('',(#164,#165),#29,.T.);
#193=ADVANCED_FACE('',(#166,#167),#22,.T.);
#194=ADVANCED_FACE('',(#168,#169),#179,.F.);
#195=ADVANCED_FACE('',(#170,#171),#30,.T.);
#196=ADVANCED_FACE('',(#172,#173),#27,.T.);
#197=ADVANCED_FACE('',(#174),#180,.F.);
#198=CLOSED_SHELL('',(#181,#182,#183,#184,#185,#186,#187,#188,#189,#190,
#191,#192,#193,#194,#195,#196,#197));
#199=STYLED_ITEM('',(#200),#207);
#200=PRESENTATION_STYLE_ASSIGNMENT((#201));
#201=SURFACE_STYLE_USAGE(.BOTH.,#202);
#202=SURFACE_SIDE_STYLE('',(#203));
#203=SURFACE_STYLE_FILL_AREA(#204);
#204=FILL_AREA_STYLE('',(#205));
#205=FILL_AREA_STYLE_COLOUR('',#206);
#206=COLOUR_RGB('',0.689999997615814,0.689999997615814,0.689999997615814);
#207=MANIFOLD_SOLID_BREP('8088986 PAGN-26-1M-G18S',#198);
#208=SHAPE_DEFINITION_REPRESENTATION(#368,#209);
#209=SHAPE_REPRESENTATION('8088986 PAGN-26-1M-G18S',(#210),#363);
#210=AXIS2_PLACEMENT_3D('',#312,#244,#245);
#211=AXIS2_PLACEMENT_3D('',#313,#246,#247);
#212=AXIS2_PLACEMENT_3D('',#314,#248,#249);
#213=AXIS2_PLACEMENT_3D('',#316,#250,#251);
#214=AXIS2_PLACEMENT_3D('',#317,#252,#253);
#215=AXIS2_PLACEMENT_3D('',#319,#254,#255);
#216=AXIS2_PLACEMENT_3D('',#320,#256,#257);
#217=AXIS2_PLACEMENT_3D('',#322,#258,#259);
#218=AXIS2_PLACEMENT_3D('',#323,#260,#261);
#219=AXIS2_PLACEMENT_3D('',#325,#262,#263);
#220=AXIS2_PLACEMENT_3D('',#326,#264,#265);
#221=AXIS2_PLACEMENT_3D('',#328,#266,#267);
#222=AXIS2_PLACEMENT_3D('',#329,#268,#269);
#223=AXIS2_PLACEMENT_3D('',#331,#270,#271);
#224=AXIS2_PLACEMENT_3D('',#332,#272,#273);
#225=AXIS2_PLACEMENT_3D('',#334,#274,#275);
#226=AXIS2_PLACEMENT_3D('',#335,#276,#277);
#227=AXIS2_PLACEMENT_3D('',#337,#278,#279);
#228=AXIS2_PLACEMENT_3D('',#338,#280,#281);
#229=AXIS2_PLACEMENT_3D('',#340,#282,#283);
#230=AXIS2_PLACEMENT_3D('',#341,#284,#285);
#231=AXIS2_PLACEMENT_3D('',#343,#286,#287);
#232=AXIS2_PLACEMENT_3D('',#344,#288,#289);
#233=AXIS2_PLACEMENT_3D('',#346,#290,#291);
#234=AXIS2_PLACEMENT_3D('',#347,#292,#293);
#235=AXIS2_PLACEMENT_3D('',#349,#294,#295);
#236=AXIS2_PLACEMENT_3D('',#350,#296,#297);
#237=AXIS2_PLACEMENT_3D('',#352,#298,#299);
#238=AXIS2_PLACEMENT_3D('',#353,#300,#301);
#239=AXIS2_PLACEMENT_3D('',#355,#302,#303);
#240=AXIS2_PLACEMENT_3D('',#356,#304,#305);
#241=AXIS2_PLACEMENT_3D('',#358,#306,#307);
#242=AXIS2_PLACEMENT_3D('',#359,#308,#309);
#243=AXIS2_PLACEMENT_3D('',#361,#310,#311);
#244=DIRECTION('',(0.,0.,1.));
#245=DIRECTION('',(1.,0.,0.));
#246=DIRECTION('',(1.,0.,0.));
#247=DIRECTION('',(0.,0.,-1.));
#248=DIRECTION('',(1.,0.,0.));
#249=DIRECTION('',(0.,0.,-1.));
#250=DIRECTION('',(1.,0.,0.));
#251=DIRECTION('',(0.,0.,-1.));
#252=DIRECTION('',(1.,0.,0.));
#253=DIRECTION('',(0.,0.,-1.));
#254=DIRECTION('',(1.,0.,0.));
#255=DIRECTION('',(0.,0.,-1.));
#256=DIRECTION('',(1.,0.,0.));
#257=DIRECTION('',(0.,0.,-1.));
#258=DIRECTION('',(-1.,0.,0.));
#259=DIRECTION('',(0.,0.,1.));
#260=DIRECTION('',(1.,0.,0.));
#261=DIRECTION('',(0.,0.,-1.));
#262=DIRECTION('',(1.,0.,0.));
#263=DIRECTION('',(0.,0.,-1.));
#264=DIRECTION('',(1.,0.,0.));
#265=DIRECTION('',(0.,0.,-1.));
#266=DIRECTION('',(1.,0.,0.));
#267=DIRECTION('',(0.,0.,-1.));
#268=DIRECTION('',(1.,0.,0.));
#269=DIRECTION('',(0.,0.,-1.));
#270=DIRECTION('',(1.,0.,0.));
#271=DIRECTION('',(0.,0.,-1.));
#272=DIRECTION('',(1.,0.,0.));
#273=DIRECTION('',(0.,0.,-1.));
#274=DIRECTION('',(1.,0.,0.));
#275=DIRECTION('',(0.,0.,-1.));
#276=DIRECTION('',(1.,0.,0.));
#277=DIRECTION('',(0.,0.,-1.));
#278=DIRECTION('',(1.,0.,0.));
#279=DIRECTION('',(0.,0.,-1.));
#280=DIRECTION('',(1.,0.,0.));
#281=DIRECTION('',(0.,0.,-1.));
#282=DIRECTION('',(1.,0.,0.));
#283=DIRECTION('',(0.,0.,-1.));
#284=DIRECTION('',(1.,0.,0.));
#285=DIRECTION('',(0.,0.,-1.));
#286=DIRECTION('',(1.,0.,0.));
#287=DIRECTION('',(0.,0.,-1.));
#288=DIRECTION('',(1.,0.,0.));
#289=DIRECTION('',(0.,0.,-1.));
#290=DIRECTION('',(1.,0.,0.));
#291=DIRECTION('',(0.,0.,-1.));
#292=DIRECTION('',(1.,0.,0.));
#293=DIRECTION('',(0.,0.,-1.));
#294=DIRECTION('',(1.,0.,0.));
#295=DIRECTION('',(0.,0.,-1.));
#296=DIRECTION('',(1.,0.,0.));
#297=DIRECTION('',(0.,0.,-1.));
#298=DIRECTION('',(1.,0.,0.));
#299=DIRECTION('',(0.,0.,-1.));
#300=DIRECTION('',(1.,0.,0.));
#301=DIRECTION('',(0.,0.,-1.));
#302=DIRECTION('',(-1.,0.,0.));
#303=DIRECTION('',(0.,0.,1.));
#304=DIRECTION('',(1.,0.,0.));
#305=DIRECTION('',(0.,0.,-1.));
#306=DIRECTION('',(1.,0.,0.));
#307=DIRECTION('',(0.,0.,-1.));
#308=DIRECTION('',(1.,0.,0.));
#309=DIRECTION('',(0.,0.,-1.));
#310=DIRECTION('',(-1.,0.,0.));
#311=DIRECTION('',(0.,0.,1.));
#312=CARTESIAN_POINT('',(0.,0.,0.));
#313=CARTESIAN_POINT('',(-28.3,0.,0.));
#314=CARTESIAN_POINT('',(-28.3,0.,0.));
#315=CARTESIAN_POINT('',(-28.3,0.,-3.2303846178543));
#316=CARTESIAN_POINT('',(-28.3,0.,0.));
#317=CARTESIAN_POINT('',(-28.1732050807568,0.,0.));
#318=CARTESIAN_POINT('',(-28.1732050807568,0.,-3.44999986012514));
#319=CARTESIAN_POINT('',(-28.,0.,0.));
#320=CARTESIAN_POINT('',(-27.8,0.,0.));
#321=CARTESIAN_POINT('',(-27.8,0.,-3.34999986012517));
#322=CARTESIAN_POINT('',(-27.8,3.34999986012517,0.));
#323=CARTESIAN_POINT('',(-27.8,0.,0.));
#324=CARTESIAN_POINT('',(-27.8,0.,-3.3));
#325=CARTESIAN_POINT('',(-27.6,0.,0.));
#326=CARTESIAN_POINT('',(-27.6,0.,0.));
#327=CARTESIAN_POINT('',(-27.6,0.,-3.1));
#328=CARTESIAN_POINT('',(0.,0.,0.));
#329=CARTESIAN_POINT('',(-26.5,0.,0.));
#330=CARTESIAN_POINT('',(-26.5,0.,-3.1));
#331=CARTESIAN_POINT('',(-26.5,0.,0.));
#332=CARTESIAN_POINT('',(-26.3,0.,0.));
#333=CARTESIAN_POINT('',(-26.3,0.,-3.3));
#334=CARTESIAN_POINT('',(-26.3,3.3,0.));
#335=CARTESIAN_POINT('',(-26.3,0.,0.));
#336=CARTESIAN_POINT('',(-26.3,0.,-3.5));
#337=CARTESIAN_POINT('',(-26.1,0.,0.));
#338=CARTESIAN_POINT('',(-26.1,0.,0.));
#339=CARTESIAN_POINT('',(-26.1,0.,-3.7));
#340=CARTESIAN_POINT('',(0.,0.,0.));
#341=CARTESIAN_POINT('',(-23.5,0.,0.));
#342=CARTESIAN_POINT('',(-23.5,0.,-3.7));
#343=CARTESIAN_POINT('',(-23.5,3.7,0.));
#344=CARTESIAN_POINT('',(-23.5,0.,0.));
#345=CARTESIAN_POINT('',(-23.5,0.,-4.283));
#346=CARTESIAN_POINT('',(-23.5,0.,0.));
#347=CARTESIAN_POINT('',(-22.919,0.,0.));
#348=CARTESIAN_POINT('',(-22.919,0.,-4.864));
#349=CARTESIAN_POINT('',(0.,0.,0.));
#350=CARTESIAN_POINT('',(-17.,0.,0.));
#351=CARTESIAN_POINT('',(-17.,0.,-4.864));
#352=CARTESIAN_POINT('',(-17.,4.864,0.));
#353=CARTESIAN_POINT('',(-17.,0.,0.));
#354=CARTESIAN_POINT('',(-17.,0.,-13.));
#355=CARTESIAN_POINT('',(-17.,0.,0.));
#356=CARTESIAN_POINT('',(-0.493943855585696,0.,0.));
#357=CARTESIAN_POINT('',(-0.493943855585696,0.,-12.8000592136092));
#358=CARTESIAN_POINT('',(-0.500000000000003,0.,0.));
#359=CARTESIAN_POINT('',(1.0842021724855E-15,0.,0.));
#360=CARTESIAN_POINT('',(1.0842021724855E-15,0.,-12.3000958918397));
#361=CARTESIAN_POINT('',(5.42101086242752E-16,12.3000958918397,0.));
#362=MECHANICAL_DESIGN_GEOMETRIC_PRESENTATION_REPRESENTATION('',(#199),
#363);
#363=(
GEOMETRIC_REPRESENTATION_CONTEXT(3)
GLOBAL_UNCERTAINTY_ASSIGNED_CONTEXT((#364))
GLOBAL_UNIT_ASSIGNED_CONTEXT((#367,#366,#365))
REPRESENTATION_CONTEXT('8088986 PAGN-26-1M-G18S',
'TOP_LEVEL_ASSEMBLY_PART')
);
#364=UNCERTAINTY_MEASURE_WITH_UNIT(LENGTH_MEASURE(0.005),#367,
'DISTANCE_ACCURACY_VALUE','Maximum Tolerance applied to model');
#365=(
NAMED_UNIT(*)
SI_UNIT($,.STERADIAN.)
SOLID_ANGLE_UNIT()
);
#366=(
NAMED_UNIT(*)
PLANE_ANGLE_UNIT()
SI_UNIT($,.RADIAN.)
);
#367=(
LENGTH_UNIT()
NAMED_UNIT(*)
SI_UNIT(.MILLI.,.METRE.)
);
#368=PRODUCT_DEFINITION_SHAPE('','',#369);
#369=PRODUCT_DEFINITION('','',#371,#370);
#370=PRODUCT_DEFINITION_CONTEXT('',#377,'design');
#371=PRODUCT_DEFINITION_FORMATION_WITH_SPECIFIED_SOURCE('','',#373,
 .NOT_KNOWN.);
#372=PRODUCT_RELATED_PRODUCT_CATEGORY('','',(#373));
#373=PRODUCT('8088986 PAGN-26-1M-G18S','8088986 PAGN-26-1M-G18S',
'8088986 PAGN-26-1M-G18S',(#375));
#374=PRODUCT_CATEGORY('','');
#375=PRODUCT_CONTEXT('',#377,'mechanical');
#376=APPLICATION_PROTOCOL_DEFINITION('international standard',
'automotive_design',2010,#377);
#377=APPLICATION_CONTEXT(
'core data for automotive mechanical design processes');
ENDSEC;
END-ISO-10303-21;
