ISO-10303-21;
HEADER;
/* Generated by software containing ST-Developer
 * from STEP Tools, Inc. (www.steptools.com) 
 */
/* OPTION: using custom renumber hook */

FILE_DESCRIPTION(
/* description */ ('STEP AP214'),
/* implementation_level */ '2;1');

FILE_NAME(
/* name */ '8097333_DADP-TF-F3-32',
/* time_stamp */ '2024-08-12T19:59:25+02:00',
/* author */ ('License CC BY-ND 4.0'),
/* organization */ ('CADENAS'),
/* preprocessor_version */ 'ST-DEVELOPER v19.3',
/* originating_system */ 'PARTsolutions',
/* authorisation */ '  ');

FILE_SCHEMA (('AUTOMOTIVE_DESIGN {1 0 10303 214 3 1 1}'));
ENDSEC;

DATA;
#10=PROPERTY_DEFINITION_REPRESENTATION(#14,#12);
#11=PROPERTY_DEFINITION_REPRESENTATION(#15,#13);
#12=REPRESENTATION('',(#16),#345);
#13=REPRESENTATION('',(#17),#345);
#14=PROPERTY_DEFINITION('pmi validation property','',#350);
#15=PROPERTY_DEFINITION('pmi validation property','',#350);
#16=VALUE_REPRESENTATION_ITEM('number of annotations',COUNT_MEASURE(0.));
#17=VALUE_REPRESENTATION_ITEM('number of views',COUNT_MEASURE(0.));
#18=SHAPE_REPRESENTATION_RELATIONSHIP('','',#235,#19);
#19=ADVANCED_BREP_SHAPE_REPRESENTATION('',(#233),#345);
#20=TOROIDAL_SURFACE('',#253,2.5,0.5);
#21=PLANE('',#241);
#22=PLANE('',#245);
#23=PLANE('',#251);
#24=PLANE('',#259);
#25=CYLINDRICAL_SURFACE('',#239,2.);
#26=CYLINDRICAL_SURFACE('',#243,3.5);
#27=CYLINDRICAL_SURFACE('',#247,5.25);
#28=CYLINDRICAL_SURFACE('',#255,2.5);
#29=VERTEX_LOOP('',#64);
#30=ORIENTED_EDGE('',*,*,#52,.F.);
#31=ORIENTED_EDGE('',*,*,#53,.F.);
#32=ORIENTED_EDGE('',*,*,#52,.T.);
#33=ORIENTED_EDGE('',*,*,#54,.F.);
#34=ORIENTED_EDGE('',*,*,#53,.T.);
#35=ORIENTED_EDGE('',*,*,#55,.F.);
#36=ORIENTED_EDGE('',*,*,#54,.T.);
#37=ORIENTED_EDGE('',*,*,#56,.F.);
#38=ORIENTED_EDGE('',*,*,#55,.T.);
#39=ORIENTED_EDGE('',*,*,#57,.F.);
#40=ORIENTED_EDGE('',*,*,#56,.T.);
#41=ORIENTED_EDGE('',*,*,#58,.F.);
#42=ORIENTED_EDGE('',*,*,#57,.T.);
#43=ORIENTED_EDGE('',*,*,#59,.F.);
#44=ORIENTED_EDGE('',*,*,#58,.T.);
#45=ORIENTED_EDGE('',*,*,#59,.T.);
#46=ORIENTED_EDGE('',*,*,#60,.F.);
#47=ORIENTED_EDGE('',*,*,#61,.F.);
#48=ORIENTED_EDGE('',*,*,#60,.T.);
#49=ORIENTED_EDGE('',*,*,#62,.F.);
#50=ORIENTED_EDGE('',*,*,#61,.T.);
#51=ORIENTED_EDGE('',*,*,#62,.T.);
#52=EDGE_CURVE('',#63,#63,#75,.T.);
#53=EDGE_CURVE('',#65,#65,#76,.T.);
#54=EDGE_CURVE('',#66,#66,#77,.T.);
#55=EDGE_CURVE('',#67,#67,#78,.T.);
#56=EDGE_CURVE('',#68,#68,#79,.T.);
#57=EDGE_CURVE('',#69,#69,#80,.T.);
#58=EDGE_CURVE('',#70,#70,#81,.T.);
#59=EDGE_CURVE('',#71,#71,#82,.T.);
#60=EDGE_CURVE('',#72,#72,#83,.T.);
#61=EDGE_CURVE('',#73,#73,#84,.T.);
#62=EDGE_CURVE('',#74,#74,#85,.T.);
#63=VERTEX_POINT('',#311);
#64=VERTEX_POINT('',#312);
#65=VERTEX_POINT('',#315);
#66=VERTEX_POINT('',#318);
#67=VERTEX_POINT('',#321);
#68=VERTEX_POINT('',#324);
#69=VERTEX_POINT('',#327);
#70=VERTEX_POINT('',#330);
#71=VERTEX_POINT('',#333);
#72=VERTEX_POINT('',#336);
#73=VERTEX_POINT('',#339);
#74=VERTEX_POINT('',#342);
#75=CIRCLE('',#238,2.);
#76=CIRCLE('',#240,2.);
#77=CIRCLE('',#242,3.5);
#78=CIRCLE('',#244,3.5);
#79=CIRCLE('',#246,5.25);
#80=CIRCLE('',#248,5.25);
#81=CIRCLE('',#250,4.25);
#82=CIRCLE('',#252,2.5);
#83=CIRCLE('',#254,2.5);
#84=CIRCLE('',#256,2.5);
#85=CIRCLE('',#258,2.0095);
#86=EDGE_LOOP('',(#30));
#87=EDGE_LOOP('',(#31));
#88=EDGE_LOOP('',(#32));
#89=EDGE_LOOP('',(#33));
#90=EDGE_LOOP('',(#34));
#91=EDGE_LOOP('',(#35));
#92=EDGE_LOOP('',(#36));
#93=EDGE_LOOP('',(#37));
#94=EDGE_LOOP('',(#38));
#95=EDGE_LOOP('',(#39));
#96=EDGE_LOOP('',(#40));
#97=EDGE_LOOP('',(#41));
#98=EDGE_LOOP('',(#42));
#99=EDGE_LOOP('',(#43));
#100=EDGE_LOOP('',(#44));
#101=EDGE_LOOP('',(#45));
#102=EDGE_LOOP('',(#46));
#103=EDGE_LOOP('',(#47));
#104=EDGE_LOOP('',(#48));
#105=EDGE_LOOP('',(#49));
#106=EDGE_LOOP('',(#50));
#107=EDGE_LOOP('',(#51));
#108=FACE_BOUND('',#86,.T.);
#109=FACE_BOUND('',#29,.T.);
#110=FACE_BOUND('',#87,.T.);
#111=FACE_BOUND('',#88,.T.);
#112=FACE_BOUND('',#89,.T.);
#113=FACE_BOUND('',#90,.T.);
#114=FACE_BOUND('',#91,.T.);
#115=FACE_BOUND('',#92,.T.);
#116=FACE_BOUND('',#93,.T.);
#117=FACE_BOUND('',#94,.T.);
#118=FACE_BOUND('',#95,.T.);
#119=FACE_BOUND('',#96,.T.);
#120=FACE_BOUND('',#97,.T.);
#121=FACE_BOUND('',#98,.T.);
#122=FACE_BOUND('',#99,.T.);
#123=FACE_BOUND('',#100,.T.);
#124=FACE_BOUND('',#101,.T.);
#125=FACE_BOUND('',#102,.T.);
#126=FACE_BOUND('',#103,.T.);
#127=FACE_BOUND('',#104,.T.);
#128=FACE_BOUND('',#105,.T.);
#129=FACE_BOUND('',#106,.T.);
#130=FACE_BOUND('',#107,.T.);
#131=CONICAL_SURFACE('',#237,8.67361737988404E-16,1.02974425867665);
#132=CONICAL_SURFACE('',#249,5.25,0.785398163397448);
#133=CONICAL_SURFACE('',#257,2.5,0.785398163397449);
#134=STYLED_ITEM('',(#146),#220);
#135=STYLED_ITEM('',(#147),#221);
#136=STYLED_ITEM('',(#148),#222);
#137=STYLED_ITEM('',(#149),#223);
#138=STYLED_ITEM('',(#150),#224);
#139=STYLED_ITEM('',(#151),#225);
#140=STYLED_ITEM('',(#152),#226);
#141=STYLED_ITEM('',(#153),#227);
#142=STYLED_ITEM('',(#154),#228);
#143=STYLED_ITEM('',(#155),#229);
#144=STYLED_ITEM('',(#156),#230);
#145=STYLED_ITEM('',(#157),#231);
#146=PRESENTATION_STYLE_ASSIGNMENT((#158));
#147=PRESENTATION_STYLE_ASSIGNMENT((#159));
#148=PRESENTATION_STYLE_ASSIGNMENT((#160));
#149=PRESENTATION_STYLE_ASSIGNMENT((#161));
#150=PRESENTATION_STYLE_ASSIGNMENT((#162));
#151=PRESENTATION_STYLE_ASSIGNMENT((#163));
#152=PRESENTATION_STYLE_ASSIGNMENT((#164));
#153=PRESENTATION_STYLE_ASSIGNMENT((#165));
#154=PRESENTATION_STYLE_ASSIGNMENT((#166));
#155=PRESENTATION_STYLE_ASSIGNMENT((#167));
#156=PRESENTATION_STYLE_ASSIGNMENT((#168));
#157=PRESENTATION_STYLE_ASSIGNMENT((#169));
#158=SURFACE_STYLE_USAGE(.BOTH.,#170);
#159=SURFACE_STYLE_USAGE(.BOTH.,#171);
#160=SURFACE_STYLE_USAGE(.BOTH.,#172);
#161=SURFACE_STYLE_USAGE(.BOTH.,#173);
#162=SURFACE_STYLE_USAGE(.BOTH.,#174);
#163=SURFACE_STYLE_USAGE(.BOTH.,#175);
#164=SURFACE_STYLE_USAGE(.BOTH.,#176);
#165=SURFACE_STYLE_USAGE(.BOTH.,#177);
#166=SURFACE_STYLE_USAGE(.BOTH.,#178);
#167=SURFACE_STYLE_USAGE(.BOTH.,#179);
#168=SURFACE_STYLE_USAGE(.BOTH.,#180);
#169=SURFACE_STYLE_USAGE(.BOTH.,#181);
#170=SURFACE_SIDE_STYLE('',(#182));
#171=SURFACE_SIDE_STYLE('',(#183));
#172=SURFACE_SIDE_STYLE('',(#184));
#173=SURFACE_SIDE_STYLE('',(#185));
#174=SURFACE_SIDE_STYLE('',(#186));
#175=SURFACE_SIDE_STYLE('',(#187));
#176=SURFACE_SIDE_STYLE('',(#188));
#177=SURFACE_SIDE_STYLE('',(#189));
#178=SURFACE_SIDE_STYLE('',(#190));
#179=SURFACE_SIDE_STYLE('',(#191));
#180=SURFACE_SIDE_STYLE('',(#192));
#181=SURFACE_SIDE_STYLE('',(#193));
#182=SURFACE_STYLE_FILL_AREA(#194);
#183=SURFACE_STYLE_FILL_AREA(#195);
#184=SURFACE_STYLE_FILL_AREA(#196);
#185=SURFACE_STYLE_FILL_AREA(#197);
#186=SURFACE_STYLE_FILL_AREA(#198);
#187=SURFACE_STYLE_FILL_AREA(#199);
#188=SURFACE_STYLE_FILL_AREA(#200);
#189=SURFACE_STYLE_FILL_AREA(#201);
#190=SURFACE_STYLE_FILL_AREA(#202);
#191=SURFACE_STYLE_FILL_AREA(#203);
#192=SURFACE_STYLE_FILL_AREA(#204);
#193=SURFACE_STYLE_FILL_AREA(#205);
#194=FILL_AREA_STYLE('',(#206));
#195=FILL_AREA_STYLE('',(#207));
#196=FILL_AREA_STYLE('',(#208));
#197=FILL_AREA_STYLE('',(#209));
#198=FILL_AREA_STYLE('',(#210));
#199=FILL_AREA_STYLE('',(#211));
#200=FILL_AREA_STYLE('',(#212));
#201=FILL_AREA_STYLE('',(#213));
#202=FILL_AREA_STYLE('',(#214));
#203=FILL_AREA_STYLE('',(#215));
#204=FILL_AREA_STYLE('',(#216));
#205=FILL_AREA_STYLE('',(#217));
#206=FILL_AREA_STYLE_COLOUR('',#218);
#207=FILL_AREA_STYLE_COLOUR('',#218);
#208=FILL_AREA_STYLE_COLOUR('',#218);
#209=FILL_AREA_STYLE_COLOUR('',#218);
#210=FILL_AREA_STYLE_COLOUR('',#218);
#211=FILL_AREA_STYLE_COLOUR('',#218);
#212=FILL_AREA_STYLE_COLOUR('',#218);
#213=FILL_AREA_STYLE_COLOUR('',#218);
#214=FILL_AREA_STYLE_COLOUR('',#219);
#215=FILL_AREA_STYLE_COLOUR('',#218);
#216=FILL_AREA_STYLE_COLOUR('',#218);
#217=FILL_AREA_STYLE_COLOUR('',#218);
#218=COLOUR_RGB('',0.689999997615814,0.689999997615814,0.689999997615814);
#219=COLOUR_RGB('',0.34099999070168,0.34099999070168,0.34099999070168);
#220=ADVANCED_FACE('',(#108,#109),#131,.F.);
#221=ADVANCED_FACE('',(#110,#111),#25,.F.);
#222=ADVANCED_FACE('',(#112,#113),#21,.F.);
#223=ADVANCED_FACE('',(#114,#115),#26,.T.);
#224=ADVANCED_FACE('',(#116,#117),#22,.F.);
#225=ADVANCED_FACE('',(#118,#119),#27,.T.);
#226=ADVANCED_FACE('',(#120,#121),#132,.T.);
#227=ADVANCED_FACE('',(#122,#123),#23,.F.);
#228=ADVANCED_FACE('',(#124,#125),#20,.T.);
#229=ADVANCED_FACE('',(#126,#127),#28,.T.);
#230=ADVANCED_FACE('',(#128,#129),#133,.T.);
#231=ADVANCED_FACE('',(#130),#24,.F.);
#232=CLOSED_SHELL('',(#220,#221,#222,#223,#224,#225,#226,#227,#228,#229,
#230,#231));
#233=MANIFOLD_SOLID_BREP('8097333 DADP-TF-F3-32',#232);
#234=SHAPE_DEFINITION_REPRESENTATION(#350,#235);
#235=SHAPE_REPRESENTATION('8097333 DADP-TF-F3-32',(#236),#345);
#236=AXIS2_PLACEMENT_3D('',#308,#260,#261);
#237=AXIS2_PLACEMENT_3D('',#309,#262,#263);
#238=AXIS2_PLACEMENT_3D('',#310,#264,#265);
#239=AXIS2_PLACEMENT_3D('',#313,#266,#267);
#240=AXIS2_PLACEMENT_3D('',#314,#268,#269);
#241=AXIS2_PLACEMENT_3D('',#316,#270,#271);
#242=AXIS2_PLACEMENT_3D('',#317,#272,#273);
#243=AXIS2_PLACEMENT_3D('',#319,#274,#275);
#244=AXIS2_PLACEMENT_3D('',#320,#276,#277);
#245=AXIS2_PLACEMENT_3D('',#322,#278,#279);
#246=AXIS2_PLACEMENT_3D('',#323,#280,#281);
#247=AXIS2_PLACEMENT_3D('',#325,#282,#283);
#248=AXIS2_PLACEMENT_3D('',#326,#284,#285);
#249=AXIS2_PLACEMENT_3D('',#328,#286,#287);
#250=AXIS2_PLACEMENT_3D('',#329,#288,#289);
#251=AXIS2_PLACEMENT_3D('',#331,#290,#291);
#252=AXIS2_PLACEMENT_3D('',#332,#292,#293);
#253=AXIS2_PLACEMENT_3D('',#334,#294,#295);
#254=AXIS2_PLACEMENT_3D('',#335,#296,#297);
#255=AXIS2_PLACEMENT_3D('',#337,#298,#299);
#256=AXIS2_PLACEMENT_3D('',#338,#300,#301);
#257=AXIS2_PLACEMENT_3D('',#340,#302,#303);
#258=AXIS2_PLACEMENT_3D('',#341,#304,#305);
#259=AXIS2_PLACEMENT_3D('',#343,#306,#307);
#260=DIRECTION('',(0.,0.,1.));
#261=DIRECTION('',(1.,0.,0.));
#262=DIRECTION('',(0.,1.,0.));
#263=DIRECTION('',(0.,0.,1.));
#264=DIRECTION('',(0.,-1.,0.));
#265=DIRECTION('',(0.,0.,-1.));
#266=DIRECTION('',(0.,-1.,0.));
#267=DIRECTION('',(0.,0.,-1.));
#268=DIRECTION('',(0.,-1.,0.));
#269=DIRECTION('',(0.,0.,-1.));
#270=DIRECTION('',(0.,-1.,0.));
#271=DIRECTION('',(0.,0.,-1.));
#272=DIRECTION('',(0.,-1.,0.));
#273=DIRECTION('',(0.,0.,-1.));
#274=DIRECTION('',(0.,-1.,0.));
#275=DIRECTION('',(0.,0.,-1.));
#276=DIRECTION('',(0.,-1.,0.));
#277=DIRECTION('',(0.,0.,-1.));
#278=DIRECTION('',(0.,-1.,0.));
#279=DIRECTION('',(0.,0.,-1.));
#280=DIRECTION('',(0.,-1.,0.));
#281=DIRECTION('',(0.,0.,-1.));
#282=DIRECTION('',(0.,-1.,0.));
#283=DIRECTION('',(0.,0.,-1.));
#284=DIRECTION('',(0.,-1.,0.));
#285=DIRECTION('',(0.,0.,-1.));
#286=DIRECTION('',(0.,1.,0.));
#287=DIRECTION('',(0.,0.,1.));
#288=DIRECTION('',(0.,-1.,0.));
#289=DIRECTION('',(0.,0.,-1.));
#290=DIRECTION('',(0.,1.,0.));
#291=DIRECTION('',(0.,0.,1.));
#292=DIRECTION('',(0.,-1.,0.));
#293=DIRECTION('',(0.,0.,-1.));
#294=DIRECTION('',(0.,-1.,0.));
#295=DIRECTION('',(0.,0.,-1.));
#296=DIRECTION('',(0.,-1.,0.));
#297=DIRECTION('',(0.,0.,-1.));
#298=DIRECTION('',(0.,-1.,0.));
#299=DIRECTION('',(0.,0.,-1.));
#300=DIRECTION('',(0.,-1.,0.));
#301=DIRECTION('',(0.,0.,-1.));
#302=DIRECTION('',(0.,1.,0.));
#303=DIRECTION('',(0.,0.,1.));
#304=DIRECTION('',(0.,-1.,0.));
#305=DIRECTION('',(0.,0.,-1.));
#306=DIRECTION('',(0.,1.,0.));
#307=DIRECTION('',(0.,0.,1.));
#308=CARTESIAN_POINT('',(0.,0.,0.));
#309=CARTESIAN_POINT('',(0.,5.49257058606412,0.));
#310=CARTESIAN_POINT('',(0.,6.69429182411924,0.));
#311=CARTESIAN_POINT('',(0.,6.69429182411924,-2.));
#312=CARTESIAN_POINT('',(0.,5.49257058606412,0.));
#313=CARTESIAN_POINT('',(0.,-5.5,0.));
#314=CARTESIAN_POINT('',(0.,10.7,0.));
#315=CARTESIAN_POINT('',(0.,10.7,-2.));
#316=CARTESIAN_POINT('',(0.,10.7,-2.));
#317=CARTESIAN_POINT('',(0.,10.7,0.));
#318=CARTESIAN_POINT('',(0.,10.7,-3.5));
#319=CARTESIAN_POINT('',(0.,-5.5,0.));
#320=CARTESIAN_POINT('',(0.,9.7,0.));
#321=CARTESIAN_POINT('',(0.,9.7,-3.5));
#322=CARTESIAN_POINT('',(0.,9.7,-3.5));
#323=CARTESIAN_POINT('',(0.,9.7,0.));
#324=CARTESIAN_POINT('',(0.,9.7,-5.25));
#325=CARTESIAN_POINT('',(0.,-5.5,0.));
#326=CARTESIAN_POINT('',(0.,1.,0.));
#327=CARTESIAN_POINT('',(0.,1.,-5.25));
#328=CARTESIAN_POINT('',(0.,1.,0.));
#329=CARTESIAN_POINT('',(0.,0.,0.));
#330=CARTESIAN_POINT('',(0.,0.,-4.25));
#331=CARTESIAN_POINT('',(0.,0.,-4.25));
#332=CARTESIAN_POINT('',(0.,0.,0.));
#333=CARTESIAN_POINT('',(0.,0.,-2.5));
#334=CARTESIAN_POINT('',(0.,-0.5,0.));
#335=CARTESIAN_POINT('',(0.,-1.,0.));
#336=CARTESIAN_POINT('',(0.,-1.,-2.5));
#337=CARTESIAN_POINT('',(0.,-5.5,0.));
#338=CARTESIAN_POINT('',(0.,-5.0095,0.));
#339=CARTESIAN_POINT('',(0.,-5.0095,-2.5));
#340=CARTESIAN_POINT('',(0.,-5.0095,0.));
#341=CARTESIAN_POINT('',(0.,-5.5,0.));
#342=CARTESIAN_POINT('',(0.,-5.5,-2.0095));
#343=CARTESIAN_POINT('',(0.,-5.5,-2.0095));
#344=MECHANICAL_DESIGN_GEOMETRIC_PRESENTATION_REPRESENTATION('',(#134,#135,
#136,#137,#138,#139,#140,#141,#142,#143,#144,#145),#345);
#345=(
GEOMETRIC_REPRESENTATION_CONTEXT(3)
GLOBAL_UNCERTAINTY_ASSIGNED_CONTEXT((#346))
GLOBAL_UNIT_ASSIGNED_CONTEXT((#349,#348,#347))
REPRESENTATION_CONTEXT('8097333 DADP-TF-F3-32',
'TOP_LEVEL_ASSEMBLY_PART')
);
#346=UNCERTAINTY_MEASURE_WITH_UNIT(LENGTH_MEASURE(0.005),#349,
'DISTANCE_ACCURACY_VALUE','Maximum Tolerance applied to model');
#347=(
NAMED_UNIT(*)
SI_UNIT($,.STERADIAN.)
SOLID_ANGLE_UNIT()
);
#348=(
NAMED_UNIT(*)
PLANE_ANGLE_UNIT()
SI_UNIT($,.RADIAN.)
);
#349=(
LENGTH_UNIT()
NAMED_UNIT(*)
SI_UNIT(.MILLI.,.METRE.)
);
#350=PRODUCT_DEFINITION_SHAPE('','',#351);
#351=PRODUCT_DEFINITION('','',#353,#352);
#352=PRODUCT_DEFINITION_CONTEXT('',#359,'design');
#353=PRODUCT_DEFINITION_FORMATION_WITH_SPECIFIED_SOURCE('','',#355,
 .NOT_KNOWN.);
#354=PRODUCT_RELATED_PRODUCT_CATEGORY('','',(#355));
#355=PRODUCT('8097333 DADP-TF-F3-32','8097333 DADP-TF-F3-32',
'8097333 DADP-TF-F3-32',(#357));
#356=PRODUCT_CATEGORY('','');
#357=PRODUCT_CONTEXT('',#359,'mechanical');
#358=APPLICATION_PROTOCOL_DEFINITION('international standard',
'automotive_design',2010,#359);
#359=APPLICATION_CONTEXT(
'core data for automotive mechanical design processes');
ENDSEC;
END-ISO-10303-21;
