ISO-10303-21;
HEADER;
/* Generated by software containing ST-Developer
 * from STEP Tools, Inc. (www.steptools.com) 
 */
/* OPTION: using custom renumber hook */

FILE_DESCRIPTION(
/* description */ ('STEP AP214'),
/* implementation_level */ '2;1');

FILE_NAME(
/* name */ '8137184_ZBH-9-B',
/* time_stamp */ '2024-09-10T08:49:28+02:00',
/* author */ ('License CC BY-ND 4.0'),
/* organization */ ('CADENAS'),
/* preprocessor_version */ 'ST-DEVELOPER v19.3',
/* originating_system */ 'PARTsolutions',
/* authorisation */ '  ');

FILE_SCHEMA (('AUTOMOTIVE_DESIGN {1 0 10303 214 3 1 1}'));
ENDSEC;

DATA;
#10=PROPERTY_DEFINITION_REPRESENTATION(#14,#12);
#11=PROPERTY_DEFINITION_REPRESENTATION(#15,#13);
#12=REPRESENTATION('',(#16),#205);
#13=REPRESENTATION('',(#17),#205);
#14=PROPERTY_DEFINITION('pmi validation property','',#210);
#15=PROPERTY_DEFINITION('pmi validation property','',#210);
#16=VALUE_REPRESENTATION_ITEM('number of annotations',COUNT_MEASURE(0.));
#17=VALUE_REPRESENTATION_ITEM('number of views',COUNT_MEASURE(0.));
#18=SHAPE_REPRESENTATION_RELATIONSHIP('','',#115,#19);
#19=ADVANCED_BREP_SHAPE_REPRESENTATION('',(#113),#205);
#20=PLANE('',#125);
#21=PLANE('',#126);
#22=B_SPLINE_CURVE_WITH_KNOTS('',3,(#164,#165,#166,#167,#168,#169,#170),
 .UNSPECIFIED.,.F.,.F.,(4,1,1,1,4),(1.97166203620393E-7,0.000508234861600725,
0.00101627255699783,0.00152431025239493,0.00203234794779204),
 .UNSPECIFIED.);
#23=B_SPLINE_CURVE_WITH_KNOTS('',3,(#174,#175,#176,#177,#178,#179,#180),
 .UNSPECIFIED.,.F.,.F.,(4,1,1,1,4),(1.97165802373609E-7,0.000508234628464565,
0.00101627209112676,0.00152430955378895,0.00203234701645114),
 .UNSPECIFIED.);
#24=B_SPLINE_CURVE_WITH_KNOTS('',3,(#188,#189,#190,#191,#192,#193,#194),
 .UNSPECIFIED.,.F.,.F.,(4,1,1,1,4),(1.971662036205E-7,0.000508234861600725,
0.00101627255699783,0.00152431025239493,0.00203234794779204),
 .UNSPECIFIED.);
#25=B_SPLINE_CURVE_WITH_KNOTS('',3,(#195,#196,#197,#198,#199,#200,#201),
 .UNSPECIFIED.,.F.,.F.,(4,1,1,1,4),(1.97165802374965E-7,0.000508234628464566,
0.00101627209112676,0.00152430955378895,0.00203234701645114),
 .UNSPECIFIED.);
#26=TOROIDAL_SURFACE('',#120,3.85,0.65);
#27=TOROIDAL_SURFACE('',#124,3.85,0.65);
#28=LINE('',#158,#32);
#29=LINE('',#162,#33);
#30=LINE('',#182,#34);
#31=LINE('',#186,#35);
#32=VECTOR('',#133,1000.);
#33=VECTOR('',#136,1000.);
#34=VECTOR('',#143,1000.);
#35=VECTOR('',#146,1000.);
#36=ORIENTED_EDGE('',*,*,#60,.F.);
#37=ORIENTED_EDGE('',*,*,#61,.T.);
#38=ORIENTED_EDGE('',*,*,#62,.T.);
#39=ORIENTED_EDGE('',*,*,#63,.T.);
#40=ORIENTED_EDGE('',*,*,#62,.F.);
#41=ORIENTED_EDGE('',*,*,#64,.T.);
#42=ORIENTED_EDGE('',*,*,#65,.T.);
#43=ORIENTED_EDGE('',*,*,#66,.T.);
#44=ORIENTED_EDGE('',*,*,#65,.F.);
#45=ORIENTED_EDGE('',*,*,#67,.T.);
#46=ORIENTED_EDGE('',*,*,#68,.T.);
#47=ORIENTED_EDGE('',*,*,#69,.T.);
#48=ORIENTED_EDGE('',*,*,#60,.T.);
#49=ORIENTED_EDGE('',*,*,#70,.T.);
#50=ORIENTED_EDGE('',*,*,#68,.F.);
#51=ORIENTED_EDGE('',*,*,#71,.T.);
#52=ORIENTED_EDGE('',*,*,#71,.F.);
#53=ORIENTED_EDGE('',*,*,#67,.F.);
#54=ORIENTED_EDGE('',*,*,#64,.F.);
#55=ORIENTED_EDGE('',*,*,#61,.F.);
#56=ORIENTED_EDGE('',*,*,#66,.F.);
#57=ORIENTED_EDGE('',*,*,#69,.F.);
#58=ORIENTED_EDGE('',*,*,#70,.F.);
#59=ORIENTED_EDGE('',*,*,#63,.F.);
#60=EDGE_CURVE('',#72,#73,#80,.T.);
#61=EDGE_CURVE('',#72,#74,#28,.F.);
#62=EDGE_CURVE('',#74,#75,#81,.T.);
#63=EDGE_CURVE('',#75,#73,#29,.T.);
#64=EDGE_CURVE('',#74,#76,#22,.T.);
#65=EDGE_CURVE('',#76,#77,#82,.T.);
#66=EDGE_CURVE('',#77,#75,#23,.T.);
#67=EDGE_CURVE('',#76,#78,#30,.T.);
#68=EDGE_CURVE('',#78,#79,#83,.T.);
#69=EDGE_CURVE('',#79,#77,#31,.F.);
#70=EDGE_CURVE('',#73,#79,#24,.T.);
#71=EDGE_CURVE('',#78,#72,#25,.T.);
#72=VERTEX_POINT('',#156);
#73=VERTEX_POINT('',#157);
#74=VERTEX_POINT('',#159);
#75=VERTEX_POINT('',#161);
#76=VERTEX_POINT('',#171);
#77=VERTEX_POINT('',#173);
#78=VERTEX_POINT('',#183);
#79=VERTEX_POINT('',#185);
#80=CIRCLE('',#118,4.5);
#81=CIRCLE('',#119,4.5);
#82=CIRCLE('',#121,3.2);
#83=CIRCLE('',#123,3.2);
#84=EDGE_LOOP('',(#36,#37,#38,#39));
#85=EDGE_LOOP('',(#40,#41,#42,#43));
#86=EDGE_LOOP('',(#44,#45,#46,#47));
#87=EDGE_LOOP('',(#48,#49,#50,#51));
#88=EDGE_LOOP('',(#52,#53,#54,#55));
#89=EDGE_LOOP('',(#56,#57,#58,#59));
#90=FACE_BOUND('',#84,.T.);
#91=FACE_BOUND('',#85,.T.);
#92=FACE_BOUND('',#86,.T.);
#93=FACE_BOUND('',#87,.T.);
#94=FACE_BOUND('',#88,.T.);
#95=FACE_BOUND('',#89,.T.);
#96=CYLINDRICAL_SURFACE('',#117,4.5);
#97=CYLINDRICAL_SURFACE('',#122,3.2);
#98=ADVANCED_FACE('',(#90),#96,.T.);
#99=ADVANCED_FACE('',(#91),#26,.T.);
#100=ADVANCED_FACE('',(#92),#97,.F.);
#101=ADVANCED_FACE('',(#93),#27,.T.);
#102=ADVANCED_FACE('',(#94),#20,.T.);
#103=ADVANCED_FACE('',(#95),#21,.T.);
#104=CLOSED_SHELL('',(#98,#99,#100,#101,#102,#103));
#105=STYLED_ITEM('',(#106),#113);
#106=PRESENTATION_STYLE_ASSIGNMENT((#107));
#107=SURFACE_STYLE_USAGE(.BOTH.,#108);
#108=SURFACE_SIDE_STYLE('',(#109));
#109=SURFACE_STYLE_FILL_AREA(#110);
#110=FILL_AREA_STYLE('',(#111));
#111=FILL_AREA_STYLE_COLOUR('',#112);
#112=COLOUR_RGB('',0.689999997615814,0.689999997615814,0.689999997615814);
#113=MANIFOLD_SOLID_BREP('8137184 ZBH-9-B',#104);
#114=SHAPE_DEFINITION_REPRESENTATION(#210,#115);
#115=SHAPE_REPRESENTATION('8137184 ZBH-9-B',(#116),#205);
#116=AXIS2_PLACEMENT_3D('',#153,#127,#128);
#117=AXIS2_PLACEMENT_3D('',#154,#129,#130);
#118=AXIS2_PLACEMENT_3D('',#155,#131,#132);
#119=AXIS2_PLACEMENT_3D('',#160,#134,#135);
#120=AXIS2_PLACEMENT_3D('',#163,#137,#138);
#121=AXIS2_PLACEMENT_3D('',#172,#139,#140);
#122=AXIS2_PLACEMENT_3D('',#181,#141,#142);
#123=AXIS2_PLACEMENT_3D('',#184,#144,#145);
#124=AXIS2_PLACEMENT_3D('',#187,#147,#148);
#125=AXIS2_PLACEMENT_3D('',#202,#149,#150);
#126=AXIS2_PLACEMENT_3D('',#203,#151,#152);
#127=DIRECTION('',(0.,0.,1.));
#128=DIRECTION('',(1.,0.,0.));
#129=DIRECTION('',(1.,0.,0.));
#130=DIRECTION('',(0.,0.,-1.));
#131=DIRECTION('',(1.,0.,0.));
#132=DIRECTION('',(0.,0.,-1.));
#133=DIRECTION('',(1.,0.,0.));
#134=DIRECTION('',(1.,0.,0.));
#135=DIRECTION('',(0.,0.,-1.));
#136=DIRECTION('',(1.,0.,0.));
#137=DIRECTION('',(1.,0.,0.));
#138=DIRECTION('',(0.,0.,-1.));
#139=DIRECTION('',(1.,0.,0.));
#140=DIRECTION('',(0.,0.,-1.));
#141=DIRECTION('',(1.,0.,0.));
#142=DIRECTION('',(0.,0.,-1.));
#143=DIRECTION('',(1.,0.,0.));
#144=DIRECTION('',(1.,0.,0.));
#145=DIRECTION('',(0.,0.,-1.));
#146=DIRECTION('',(1.,0.,0.));
#147=DIRECTION('',(1.,0.,0.));
#148=DIRECTION('',(0.,0.,-1.));
#149=DIRECTION('',(0.,0.999390827019096,0.0348994967025009));
#150=DIRECTION('',(0.,-0.0348994967025009,0.999390827019096));
#151=DIRECTION('',(0.,-0.999390827019096,0.0348994967025009));
#152=DIRECTION('',(0.,-0.0348994967025009,-0.999390827019096));
#153=CARTESIAN_POINT('',(0.,0.,0.));
#154=CARTESIAN_POINT('',(3.9,0.,0.));
#155=CARTESIAN_POINT('',(3.25,0.,0.));
#156=CARTESIAN_POINT('',(3.25,-0.0553856430950505,4.49965914603973));
#157=CARTESIAN_POINT('',(3.25,0.0553856430950505,4.49965914603973));
#158=CARTESIAN_POINT('',(3.9,-0.0553856430950505,4.49965914603973));
#159=CARTESIAN_POINT('',(0.65,-0.0553856430950505,4.49965914603973));
#160=CARTESIAN_POINT('',(0.65,0.,0.));
#161=CARTESIAN_POINT('',(0.65,0.0553856430950505,4.49965914603973));
#162=CARTESIAN_POINT('',(3.9,0.0553856430950505,4.49965914603973));
#163=CARTESIAN_POINT('',(0.65,0.,0.));
#164=CARTESIAN_POINT('',(0.65,-0.0553856430950505,4.49965914603973));
#165=CARTESIAN_POINT('',(0.478224649730278,-0.0553856430950505,4.49965914603973));
#166=CARTESIAN_POINT('',(0.141495382000281,-0.0504668775269212,4.35880412939149));
#167=CARTESIAN_POINT('',(-0.0706135940491483,-0.0327141766105827,3.85043328949537));
#168=CARTESIAN_POINT('',(0.140959775235414,-0.0149277738980274,3.3410973564267));
#169=CARTESIAN_POINT('',(0.478218055641473,-0.00999999999999189,3.19998437496162));
#170=CARTESIAN_POINT('',(0.649999999999987,-0.00999999999999178,3.19998437496161));
#171=CARTESIAN_POINT('',(0.65,-0.0100000000000002,3.19998437496185));
#172=CARTESIAN_POINT('',(0.65,0.,0.));
#173=CARTESIAN_POINT('',(0.65,0.0100000000000002,3.19998437496185));
#174=CARTESIAN_POINT('',(0.65,0.0100000000000002,3.19998437496185));
#175=CARTESIAN_POINT('',(0.478224380292937,0.0100000000000002,3.19998437496185));
#176=CARTESIAN_POINT('',(0.141517710012445,0.0149201843940628,3.34088002146888));
#177=CARTESIAN_POINT('',(-0.0706128875454898,0.0326721413921729,3.84922955833419));
#178=CARTESIAN_POINT('',(0.140934834394257,0.050459217200749,4.358584766351));
#179=CARTESIAN_POINT('',(0.478218604011991,0.0553856430950587,4.49965914603996));
#180=CARTESIAN_POINT('',(0.649999999999987,0.0553856430950589,4.49965914603997));
#181=CARTESIAN_POINT('',(3.9,0.,0.));
#182=CARTESIAN_POINT('',(3.9,-0.0100000000000002,3.19998437496185));
#183=CARTESIAN_POINT('',(3.25,-0.0100000000000002,3.19998437496185));
#184=CARTESIAN_POINT('',(3.25,0.,0.));
#185=CARTESIAN_POINT('',(3.25,0.0100000000000002,3.19998437496185));
#186=CARTESIAN_POINT('',(3.9,0.0100000000000002,3.19998437496185));
#187=CARTESIAN_POINT('',(3.25,0.,0.));
#188=CARTESIAN_POINT('',(3.25,0.0553856430950505,4.49965914603973));
#189=CARTESIAN_POINT('',(3.42177535026972,0.0553856430950505,4.49965914603973));
#190=CARTESIAN_POINT('',(3.75850461799972,0.0504668775269213,4.35880412939149));
#191=CARTESIAN_POINT('',(3.97061359404915,0.0327141766105828,3.85043328949538));
#192=CARTESIAN_POINT('',(3.75904022476458,0.0149277738980274,3.3410973564267));
#193=CARTESIAN_POINT('',(3.42178194435853,0.00999999999999193,3.19998437496162));
#194=CARTESIAN_POINT('',(3.25000000000001,0.00999999999999181,3.19998437496161));
#195=CARTESIAN_POINT('',(3.25,-0.0100000000000002,3.19998437496185));
#196=CARTESIAN_POINT('',(3.42177561970706,-0.0100000000000002,3.19998437496185));
#197=CARTESIAN_POINT('',(3.75848228998755,-0.0149201843940628,3.34088002146888));
#198=CARTESIAN_POINT('',(3.97061288754549,-0.032672141392173,3.84922955833419));
#199=CARTESIAN_POINT('',(3.75906516560574,-0.0504592172007489,4.35858476635099));
#200=CARTESIAN_POINT('',(3.42178139598801,-0.0553856430950587,4.49965914603996));
#201=CARTESIAN_POINT('',(3.25000000000001,-0.0553856430950588,4.49965914603997));
#202=CARTESIAN_POINT('',(3.9,-0.090292431964369,5.49925879339479));
#203=CARTESIAN_POINT('',(3.9,0.,2.91362184213269));
#204=MECHANICAL_DESIGN_GEOMETRIC_PRESENTATION_REPRESENTATION('',(#105),
#205);
#205=(
GEOMETRIC_REPRESENTATION_CONTEXT(3)
GLOBAL_UNCERTAINTY_ASSIGNED_CONTEXT((#206))
GLOBAL_UNIT_ASSIGNED_CONTEXT((#209,#208,#207))
REPRESENTATION_CONTEXT('8137184 ZBH-9-B','TOP_LEVEL_ASSEMBLY_PART')
);
#206=UNCERTAINTY_MEASURE_WITH_UNIT(LENGTH_MEASURE(0.005),#209,
'DISTANCE_ACCURACY_VALUE','Maximum Tolerance applied to model');
#207=(
NAMED_UNIT(*)
SI_UNIT($,.STERADIAN.)
SOLID_ANGLE_UNIT()
);
#208=(
NAMED_UNIT(*)
PLANE_ANGLE_UNIT()
SI_UNIT($,.RADIAN.)
);
#209=(
LENGTH_UNIT()
NAMED_UNIT(*)
SI_UNIT(.MILLI.,.METRE.)
);
#210=PRODUCT_DEFINITION_SHAPE('','',#211);
#211=PRODUCT_DEFINITION('','',#213,#212);
#212=PRODUCT_DEFINITION_CONTEXT('',#219,'design');
#213=PRODUCT_DEFINITION_FORMATION_WITH_SPECIFIED_SOURCE('','',#215,
 .NOT_KNOWN.);
#214=PRODUCT_RELATED_PRODUCT_CATEGORY('','',(#215));
#215=PRODUCT('8137184 ZBH-9-B','8137184 ZBH-9-B','8137184 ZBH-9-B',(#217));
#216=PRODUCT_CATEGORY('','');
#217=PRODUCT_CONTEXT('',#219,'mechanical');
#218=APPLICATION_PROTOCOL_DEFINITION('international standard',
'automotive_design',2010,#219);
#219=APPLICATION_CONTEXT(
'core data for automotive mechanical design processes');
ENDSEC;
END-ISO-10303-21;
