ISO-10303-21;
HEADER;
/* Generated by software containing ST-Developer
 * from STEP Tools, Inc. (www.steptools.com) 
 */
/* OPTION: using custom renumber hook */

FILE_DESCRIPTION(
/* description */ ('STEP AP214'),
/* implementation_level */ '2;1');

FILE_NAME(
/* name */ '8141085_UO-M5',
/* time_stamp */ '2024-09-15T16:23:41+02:00',
/* author */ ('License CC BY-ND 4.0'),
/* organization */ ('CADENAS'),
/* preprocessor_version */ 'ST-DEVELOPER v19.3',
/* originating_system */ 'PARTsolutions',
/* authorisation */ '  ');

FILE_SCHEMA (('FEATURE_BASED_PROCESS_PLANNING','TECHNICAL_DATA_PACKAGING',
'INTEGRATED_CNC_SCHEMA','MODEL_BASED_INTEGRATED_MANUFACTURING_SCHEMA','PROCESS_PLANNING_SCHEMA',
'AP242_MANAGED_MODEL_BASED_3D_ENGINEERING_MIM_LF { 1 0 10303 442 3 1 4 }',
'AUTOMOTIVE_DESIGN {1 0 10303 214 3 1 1}'));
ENDSEC;

DATA;
#10=PROPERTY_DEFINITION_REPRESENTATION(#14,#12);
#11=PROPERTY_DEFINITION_REPRESENTATION(#15,#13);
#12=REPRESENTATION('',(#16),#518);
#13=REPRESENTATION('',(#17),#518);
#14=PROPERTY_DEFINITION('pmi validation property','',#523);
#15=PROPERTY_DEFINITION('pmi validation property','',#523);
#16=VALUE_REPRESENTATION_ITEM('number of annotations',COUNT_MEASURE(0.));
#17=VALUE_REPRESENTATION_ITEM('number of views',COUNT_MEASURE(0.));
#18=SHAPE_REPRESENTATION_RELATIONSHIP('','',#350,#19);
#19=ADVANCED_BREP_SHAPE_REPRESENTATION('',(#348),#518);
#20=SPHERICAL_SURFACE('',#385,8.99999999999995);
#21=DEGENERATE_TOROIDAL_SURFACE('',#381,0.449999999999981,1.00000000000002,
 .T.);
#22=DRAUGHTING_PRE_DEFINED_COLOUR('white');
#23=TOROIDAL_SURFACE('',#362,3.5,0.399999999999998);
#24=TOROIDAL_SURFACE('',#366,3.2,0.200000000000001);
#25=TOROIDAL_SURFACE('',#370,2.7,0.200000000000001);
#26=CYLINDRICAL_SURFACE('',#357,1.45);
#27=CYLINDRICAL_SURFACE('',#359,3.9);
#28=CYLINDRICAL_SURFACE('',#372,2.5);
#29=CYLINDRICAL_SURFACE('',#378,1.9);
#30=CYLINDRICAL_SURFACE('',#383,1.05);
#31=CYLINDRICAL_SURFACE('',#387,3.905);
#32=CONICAL_SURFACE('',#355,1.65,0.785398163397447);
#33=CONICAL_SURFACE('',#374,2.5,0.785398163397449);
#34=ORIENTED_EDGE('',*,*,#70,.T.);
#35=ORIENTED_EDGE('',*,*,#71,.F.);
#36=ORIENTED_EDGE('',*,*,#72,.T.);
#37=ORIENTED_EDGE('',*,*,#70,.F.);
#38=ORIENTED_EDGE('',*,*,#73,.T.);
#39=ORIENTED_EDGE('',*,*,#72,.F.);
#40=ORIENTED_EDGE('',*,*,#74,.T.);
#41=ORIENTED_EDGE('',*,*,#75,.F.);
#42=ORIENTED_EDGE('',*,*,#76,.T.);
#43=ORIENTED_EDGE('',*,*,#74,.F.);
#44=ORIENTED_EDGE('',*,*,#77,.T.);
#45=ORIENTED_EDGE('',*,*,#76,.F.);
#46=ORIENTED_EDGE('',*,*,#77,.F.);
#47=ORIENTED_EDGE('',*,*,#78,.T.);
#48=ORIENTED_EDGE('',*,*,#79,.T.);
#49=ORIENTED_EDGE('',*,*,#78,.F.);
#50=ORIENTED_EDGE('',*,*,#79,.F.);
#51=ORIENTED_EDGE('',*,*,#80,.T.);
#52=ORIENTED_EDGE('',*,*,#81,.T.);
#53=ORIENTED_EDGE('',*,*,#80,.F.);
#54=ORIENTED_EDGE('',*,*,#82,.T.);
#55=ORIENTED_EDGE('',*,*,#81,.F.);
#56=ORIENTED_EDGE('',*,*,#83,.T.);
#57=ORIENTED_EDGE('',*,*,#82,.F.);
#58=ORIENTED_EDGE('',*,*,#71,.T.);
#59=ORIENTED_EDGE('',*,*,#83,.F.);
#60=ORIENTED_EDGE('',*,*,#75,.T.);
#61=ORIENTED_EDGE('',*,*,#84,.F.);
#62=ORIENTED_EDGE('',*,*,#73,.F.);
#63=ORIENTED_EDGE('',*,*,#85,.T.);
#64=ORIENTED_EDGE('',*,*,#86,.T.);
#65=ORIENTED_EDGE('',*,*,#85,.F.);
#66=ORIENTED_EDGE('',*,*,#87,.T.);
#67=ORIENTED_EDGE('',*,*,#86,.F.);
#68=ORIENTED_EDGE('',*,*,#84,.T.);
#69=ORIENTED_EDGE('',*,*,#87,.F.);
#70=EDGE_CURVE('',#88,#88,#106,.T.);
#71=EDGE_CURVE('',#89,#89,#107,.T.);
#72=EDGE_CURVE('',#90,#90,#108,.T.);
#73=EDGE_CURVE('',#91,#91,#109,.T.);
#74=EDGE_CURVE('',#92,#92,#110,.T.);
#75=EDGE_CURVE('',#93,#93,#111,.T.);
#76=EDGE_CURVE('',#94,#94,#112,.T.);
#77=EDGE_CURVE('',#95,#95,#113,.T.);
#78=EDGE_CURVE('',#96,#96,#114,.T.);
#79=EDGE_CURVE('',#97,#97,#115,.T.);
#80=EDGE_CURVE('',#98,#98,#116,.T.);
#81=EDGE_CURVE('',#99,#99,#117,.T.);
#82=EDGE_CURVE('',#100,#100,#118,.T.);
#83=EDGE_CURVE('',#101,#101,#119,.T.);
#84=EDGE_CURVE('',#102,#102,#120,.T.);
#85=EDGE_CURVE('',#103,#103,#121,.T.);
#86=EDGE_CURVE('',#104,#104,#122,.T.);
#87=EDGE_CURVE('',#105,#105,#123,.T.);
#88=VERTEX_POINT('',#465);
#89=VERTEX_POINT('',#467);
#90=VERTEX_POINT('',#470);
#91=VERTEX_POINT('',#473);
#92=VERTEX_POINT('',#476);
#93=VERTEX_POINT('',#478);
#94=VERTEX_POINT('',#481);
#95=VERTEX_POINT('',#484);
#96=VERTEX_POINT('',#487);
#97=VERTEX_POINT('',#490);
#98=VERTEX_POINT('',#493);
#99=VERTEX_POINT('',#496);
#100=VERTEX_POINT('',#499);
#101=VERTEX_POINT('',#502);
#102=VERTEX_POINT('',#506);
#103=VERTEX_POINT('',#509);
#104=VERTEX_POINT('',#512);
#105=VERTEX_POINT('',#515);
#106=CIRCLE('',#353,1.65);
#107=CIRCLE('',#354,1.9);
#108=CIRCLE('',#356,1.45);
#109=CIRCLE('',#358,1.45);
#110=CIRCLE('',#360,3.9);
#111=CIRCLE('',#361,3.9);
#112=CIRCLE('',#363,3.5);
#113=CIRCLE('',#365,3.2);
#114=CIRCLE('',#367,3.);
#115=CIRCLE('',#369,2.7);
#116=CIRCLE('',#371,2.5);
#117=CIRCLE('',#373,2.5);
#118=CIRCLE('',#375,2.0095);
#119=CIRCLE('',#377,1.9);
#120=CIRCLE('',#380,3.905);
#121=CIRCLE('',#382,1.05);
#122=CIRCLE('',#384,1.05);
#123=CIRCLE('',#386,3.905);
#124=EDGE_LOOP('',(#34));
#125=EDGE_LOOP('',(#35));
#126=EDGE_LOOP('',(#36));
#127=EDGE_LOOP('',(#37));
#128=EDGE_LOOP('',(#38));
#129=EDGE_LOOP('',(#39));
#130=EDGE_LOOP('',(#40));
#131=EDGE_LOOP('',(#41));
#132=EDGE_LOOP('',(#42));
#133=EDGE_LOOP('',(#43));
#134=EDGE_LOOP('',(#44));
#135=EDGE_LOOP('',(#45));
#136=EDGE_LOOP('',(#46));
#137=EDGE_LOOP('',(#47));
#138=EDGE_LOOP('',(#48));
#139=EDGE_LOOP('',(#49));
#140=EDGE_LOOP('',(#50));
#141=EDGE_LOOP('',(#51));
#142=EDGE_LOOP('',(#52));
#143=EDGE_LOOP('',(#53));
#144=EDGE_LOOP('',(#54));
#145=EDGE_LOOP('',(#55));
#146=EDGE_LOOP('',(#56));
#147=EDGE_LOOP('',(#57));
#148=EDGE_LOOP('',(#58));
#149=EDGE_LOOP('',(#59));
#150=EDGE_LOOP('',(#60));
#151=EDGE_LOOP('',(#61));
#152=EDGE_LOOP('',(#62));
#153=EDGE_LOOP('',(#63));
#154=EDGE_LOOP('',(#64));
#155=EDGE_LOOP('',(#65));
#156=EDGE_LOOP('',(#66));
#157=EDGE_LOOP('',(#67));
#158=EDGE_LOOP('',(#68));
#159=EDGE_LOOP('',(#69));
#160=FACE_BOUND('',#124,.T.);
#161=FACE_BOUND('',#125,.T.);
#162=FACE_BOUND('',#126,.T.);
#163=FACE_BOUND('',#127,.T.);
#164=FACE_BOUND('',#128,.T.);
#165=FACE_BOUND('',#129,.T.);
#166=FACE_BOUND('',#130,.T.);
#167=FACE_BOUND('',#131,.T.);
#168=FACE_BOUND('',#132,.T.);
#169=FACE_BOUND('',#133,.T.);
#170=FACE_BOUND('',#134,.T.);
#171=FACE_BOUND('',#135,.T.);
#172=FACE_BOUND('',#136,.T.);
#173=FACE_BOUND('',#137,.T.);
#174=FACE_BOUND('',#138,.T.);
#175=FACE_BOUND('',#139,.T.);
#176=FACE_BOUND('',#140,.T.);
#177=FACE_BOUND('',#141,.T.);
#178=FACE_BOUND('',#142,.T.);
#179=FACE_BOUND('',#143,.T.);
#180=FACE_BOUND('',#144,.T.);
#181=FACE_BOUND('',#145,.T.);
#182=FACE_BOUND('',#146,.T.);
#183=FACE_BOUND('',#147,.T.);
#184=FACE_BOUND('',#148,.T.);
#185=FACE_BOUND('',#149,.T.);
#186=FACE_BOUND('',#150,.T.);
#187=FACE_BOUND('',#151,.T.);
#188=FACE_BOUND('',#152,.T.);
#189=FACE_BOUND('',#153,.T.);
#190=FACE_BOUND('',#154,.T.);
#191=FACE_BOUND('',#155,.T.);
#192=FACE_BOUND('',#156,.T.);
#193=FACE_BOUND('',#157,.T.);
#194=FACE_BOUND('',#158,.T.);
#195=FACE_BOUND('',#159,.T.);
#196=PLANE('',#352);
#197=PLANE('',#364);
#198=PLANE('',#368);
#199=PLANE('',#376);
#200=PLANE('',#379);
#201=STYLED_ITEM('',(#219),#329);
#202=STYLED_ITEM('',(#220),#330);
#203=STYLED_ITEM('',(#221),#331);
#204=STYLED_ITEM('',(#222),#332);
#205=STYLED_ITEM('',(#223),#333);
#206=STYLED_ITEM('',(#224),#334);
#207=STYLED_ITEM('',(#225),#335);
#208=STYLED_ITEM('',(#226),#336);
#209=STYLED_ITEM('',(#227),#337);
#210=STYLED_ITEM('',(#228),#338);
#211=STYLED_ITEM('',(#229),#339);
#212=STYLED_ITEM('',(#230),#340);
#213=STYLED_ITEM('',(#231),#341);
#214=STYLED_ITEM('',(#232),#342);
#215=STYLED_ITEM('',(#233),#343);
#216=STYLED_ITEM('',(#234),#344);
#217=STYLED_ITEM('',(#235),#345);
#218=STYLED_ITEM('',(#236),#346);
#219=PRESENTATION_STYLE_ASSIGNMENT((#237));
#220=PRESENTATION_STYLE_ASSIGNMENT((#238));
#221=PRESENTATION_STYLE_ASSIGNMENT((#239));
#222=PRESENTATION_STYLE_ASSIGNMENT((#240));
#223=PRESENTATION_STYLE_ASSIGNMENT((#241));
#224=PRESENTATION_STYLE_ASSIGNMENT((#242));
#225=PRESENTATION_STYLE_ASSIGNMENT((#243));
#226=PRESENTATION_STYLE_ASSIGNMENT((#244));
#227=PRESENTATION_STYLE_ASSIGNMENT((#245));
#228=PRESENTATION_STYLE_ASSIGNMENT((#246));
#229=PRESENTATION_STYLE_ASSIGNMENT((#247));
#230=PRESENTATION_STYLE_ASSIGNMENT((#248));
#231=PRESENTATION_STYLE_ASSIGNMENT((#249));
#232=PRESENTATION_STYLE_ASSIGNMENT((#250));
#233=PRESENTATION_STYLE_ASSIGNMENT((#251));
#234=PRESENTATION_STYLE_ASSIGNMENT((#252));
#235=PRESENTATION_STYLE_ASSIGNMENT((#253));
#236=PRESENTATION_STYLE_ASSIGNMENT((#254));
#237=SURFACE_STYLE_USAGE(.BOTH.,#255);
#238=SURFACE_STYLE_USAGE(.BOTH.,#256);
#239=SURFACE_STYLE_USAGE(.BOTH.,#257);
#240=SURFACE_STYLE_USAGE(.BOTH.,#258);
#241=SURFACE_STYLE_USAGE(.BOTH.,#259);
#242=SURFACE_STYLE_USAGE(.BOTH.,#260);
#243=SURFACE_STYLE_USAGE(.BOTH.,#261);
#244=SURFACE_STYLE_USAGE(.BOTH.,#262);
#245=SURFACE_STYLE_USAGE(.BOTH.,#263);
#246=SURFACE_STYLE_USAGE(.BOTH.,#264);
#247=SURFACE_STYLE_USAGE(.BOTH.,#265);
#248=SURFACE_STYLE_USAGE(.BOTH.,#266);
#249=SURFACE_STYLE_USAGE(.BOTH.,#267);
#250=SURFACE_STYLE_USAGE(.BOTH.,#268);
#251=SURFACE_STYLE_USAGE(.BOTH.,#269);
#252=SURFACE_STYLE_USAGE(.BOTH.,#270);
#253=SURFACE_STYLE_USAGE(.BOTH.,#271);
#254=SURFACE_STYLE_USAGE(.BOTH.,#272);
#255=SURFACE_SIDE_STYLE('',(#273));
#256=SURFACE_SIDE_STYLE('',(#274));
#257=SURFACE_SIDE_STYLE('',(#275));
#258=SURFACE_SIDE_STYLE('',(#276));
#259=SURFACE_SIDE_STYLE('',(#277));
#260=SURFACE_SIDE_STYLE('',(#278));
#261=SURFACE_SIDE_STYLE('',(#279));
#262=SURFACE_SIDE_STYLE('',(#280));
#263=SURFACE_SIDE_STYLE('',(#281));
#264=SURFACE_SIDE_STYLE('',(#282));
#265=SURFACE_SIDE_STYLE('',(#283));
#266=SURFACE_SIDE_STYLE('',(#284));
#267=SURFACE_SIDE_STYLE('',(#285));
#268=SURFACE_SIDE_STYLE('',(#286));
#269=SURFACE_SIDE_STYLE('',(#287));
#270=SURFACE_SIDE_STYLE('',(#288));
#271=SURFACE_SIDE_STYLE('',(#289));
#272=SURFACE_SIDE_STYLE('',(#290));
#273=SURFACE_STYLE_FILL_AREA(#291);
#274=SURFACE_STYLE_FILL_AREA(#292);
#275=SURFACE_STYLE_FILL_AREA(#293);
#276=SURFACE_STYLE_FILL_AREA(#294);
#277=SURFACE_STYLE_FILL_AREA(#295);
#278=SURFACE_STYLE_FILL_AREA(#296);
#279=SURFACE_STYLE_FILL_AREA(#297);
#280=SURFACE_STYLE_FILL_AREA(#298);
#281=SURFACE_STYLE_FILL_AREA(#299);
#282=SURFACE_STYLE_FILL_AREA(#300);
#283=SURFACE_STYLE_FILL_AREA(#301);
#284=SURFACE_STYLE_FILL_AREA(#302);
#285=SURFACE_STYLE_FILL_AREA(#303);
#286=SURFACE_STYLE_FILL_AREA(#304);
#287=SURFACE_STYLE_FILL_AREA(#305);
#288=SURFACE_STYLE_FILL_AREA(#306);
#289=SURFACE_STYLE_FILL_AREA(#307);
#290=SURFACE_STYLE_FILL_AREA(#308);
#291=FILL_AREA_STYLE('',(#309));
#292=FILL_AREA_STYLE('',(#310));
#293=FILL_AREA_STYLE('',(#311));
#294=FILL_AREA_STYLE('',(#312));
#295=FILL_AREA_STYLE('',(#313));
#296=FILL_AREA_STYLE('',(#314));
#297=FILL_AREA_STYLE('',(#315));
#298=FILL_AREA_STYLE('',(#316));
#299=FILL_AREA_STYLE('',(#317));
#300=FILL_AREA_STYLE('',(#318));
#301=FILL_AREA_STYLE('',(#319));
#302=FILL_AREA_STYLE('',(#320));
#303=FILL_AREA_STYLE('',(#321));
#304=FILL_AREA_STYLE('',(#322));
#305=FILL_AREA_STYLE('',(#323));
#306=FILL_AREA_STYLE('',(#324));
#307=FILL_AREA_STYLE('',(#325));
#308=FILL_AREA_STYLE('',(#326));
#309=FILL_AREA_STYLE_COLOUR('',#327);
#310=FILL_AREA_STYLE_COLOUR('',#327);
#311=FILL_AREA_STYLE_COLOUR('',#327);
#312=FILL_AREA_STYLE_COLOUR('',#327);
#313=FILL_AREA_STYLE_COLOUR('',#327);
#314=FILL_AREA_STYLE_COLOUR('',#327);
#315=FILL_AREA_STYLE_COLOUR('',#327);
#316=FILL_AREA_STYLE_COLOUR('',#327);
#317=FILL_AREA_STYLE_COLOUR('',#327);
#318=FILL_AREA_STYLE_COLOUR('',#327);
#319=FILL_AREA_STYLE_COLOUR('',#327);
#320=FILL_AREA_STYLE_COLOUR('',#327);
#321=FILL_AREA_STYLE_COLOUR('',#327);
#322=FILL_AREA_STYLE_COLOUR('',#328);
#323=FILL_AREA_STYLE_COLOUR('',#22);
#324=FILL_AREA_STYLE_COLOUR('',#22);
#325=FILL_AREA_STYLE_COLOUR('',#22);
#326=FILL_AREA_STYLE_COLOUR('',#22);
#327=COLOUR_RGB('',0.,0.60000002384186,1.);
#328=COLOUR_RGB('',0.689999997615814,0.689999997615814,0.689999997615814);
#329=ADVANCED_FACE('',(#160,#161),#196,.T.);
#330=ADVANCED_FACE('',(#162,#163),#32,.F.);
#331=ADVANCED_FACE('',(#164,#165),#26,.F.);
#332=ADVANCED_FACE('',(#166,#167),#27,.T.);
#333=ADVANCED_FACE('',(#168,#169),#23,.T.);
#334=ADVANCED_FACE('',(#170,#171),#197,.T.);
#335=ADVANCED_FACE('',(#172,#173),#24,.F.);
#336=ADVANCED_FACE('',(#174,#175),#198,.T.);
#337=ADVANCED_FACE('',(#176,#177),#25,.F.);
#338=ADVANCED_FACE('',(#178,#179),#28,.T.);
#339=ADVANCED_FACE('',(#180,#181),#33,.T.);
#340=ADVANCED_FACE('',(#182,#183),#199,.T.);
#341=ADVANCED_FACE('',(#184,#185),#29,.T.);
#342=ADVANCED_FACE('',(#186,#187),#200,.T.);
#343=ADVANCED_FACE('',(#188,#189),#21,.F.);
#344=ADVANCED_FACE('',(#190,#191),#30,.F.);
#345=ADVANCED_FACE('',(#192,#193),#20,.T.);
#346=ADVANCED_FACE('',(#194,#195),#31,.T.);
#347=CLOSED_SHELL('',(#329,#330,#331,#332,#333,#334,#335,#336,#337,#338,
#339,#340,#341,#342,#343,#344,#345,#346));
#348=MANIFOLD_SOLID_BREP('8141085 UO-M5',#347);
#349=SHAPE_DEFINITION_REPRESENTATION(#523,#350);
#350=SHAPE_REPRESENTATION('8141085 UO-M5',(#351),#518);
#351=AXIS2_PLACEMENT_3D('',#462,#388,#389);
#352=AXIS2_PLACEMENT_3D('',#463,#390,#391);
#353=AXIS2_PLACEMENT_3D('',#464,#392,#393);
#354=AXIS2_PLACEMENT_3D('',#466,#394,#395);
#355=AXIS2_PLACEMENT_3D('',#468,#396,#397);
#356=AXIS2_PLACEMENT_3D('',#469,#398,#399);
#357=AXIS2_PLACEMENT_3D('',#471,#400,#401);
#358=AXIS2_PLACEMENT_3D('',#472,#402,#403);
#359=AXIS2_PLACEMENT_3D('',#474,#404,#405);
#360=AXIS2_PLACEMENT_3D('',#475,#406,#407);
#361=AXIS2_PLACEMENT_3D('',#477,#408,#409);
#362=AXIS2_PLACEMENT_3D('',#479,#410,#411);
#363=AXIS2_PLACEMENT_3D('',#480,#412,#413);
#364=AXIS2_PLACEMENT_3D('',#482,#414,#415);
#365=AXIS2_PLACEMENT_3D('',#483,#416,#417);
#366=AXIS2_PLACEMENT_3D('',#485,#418,#419);
#367=AXIS2_PLACEMENT_3D('',#486,#420,#421);
#368=AXIS2_PLACEMENT_3D('',#488,#422,#423);
#369=AXIS2_PLACEMENT_3D('',#489,#424,#425);
#370=AXIS2_PLACEMENT_3D('',#491,#426,#427);
#371=AXIS2_PLACEMENT_3D('',#492,#428,#429);
#372=AXIS2_PLACEMENT_3D('',#494,#430,#431);
#373=AXIS2_PLACEMENT_3D('',#495,#432,#433);
#374=AXIS2_PLACEMENT_3D('',#497,#434,#435);
#375=AXIS2_PLACEMENT_3D('',#498,#436,#437);
#376=AXIS2_PLACEMENT_3D('',#500,#438,#439);
#377=AXIS2_PLACEMENT_3D('',#501,#440,#441);
#378=AXIS2_PLACEMENT_3D('',#503,#442,#443);
#379=AXIS2_PLACEMENT_3D('',#504,#444,#445);
#380=AXIS2_PLACEMENT_3D('',#505,#446,#447);
#381=AXIS2_PLACEMENT_3D('',#507,#448,#449);
#382=AXIS2_PLACEMENT_3D('',#508,#450,#451);
#383=AXIS2_PLACEMENT_3D('',#510,#452,#453);
#384=AXIS2_PLACEMENT_3D('',#511,#454,#455);
#385=AXIS2_PLACEMENT_3D('',#513,#456,#457);
#386=AXIS2_PLACEMENT_3D('',#514,#458,#459);
#387=AXIS2_PLACEMENT_3D('',#516,#460,#461);
#388=DIRECTION('',(0.,0.,1.));
#389=DIRECTION('',(1.,0.,0.));
#390=DIRECTION('',(0.,0.,1.));
#391=DIRECTION('',(1.,0.,0.));
#392=DIRECTION('',(0.,0.,-1.));
#393=DIRECTION('',(-1.,0.,0.));
#394=DIRECTION('',(0.,0.,-1.));
#395=DIRECTION('',(-1.,0.,0.));
#396=DIRECTION('',(0.,0.,1.));
#397=DIRECTION('',(1.,0.,0.));
#398=DIRECTION('',(0.,0.,-1.));
#399=DIRECTION('',(-1.,0.,0.));
#400=DIRECTION('',(0.,0.,-1.));
#401=DIRECTION('',(-1.,0.,0.));
#402=DIRECTION('',(0.,0.,-1.));
#403=DIRECTION('',(-1.,0.,0.));
#404=DIRECTION('',(0.,0.,-1.));
#405=DIRECTION('',(-1.,0.,0.));
#406=DIRECTION('',(0.,0.,-1.));
#407=DIRECTION('',(-1.,0.,0.));
#408=DIRECTION('',(0.,0.,-1.));
#409=DIRECTION('',(-1.,0.,0.));
#410=DIRECTION('',(0.,0.,-1.));
#411=DIRECTION('',(-1.,0.,0.));
#412=DIRECTION('',(0.,0.,-1.));
#413=DIRECTION('',(-1.,0.,0.));
#414=DIRECTION('',(0.,0.,1.));
#415=DIRECTION('',(1.,0.,0.));
#416=DIRECTION('',(0.,0.,-1.));
#417=DIRECTION('',(-1.,0.,0.));
#418=DIRECTION('',(0.,0.,-1.));
#419=DIRECTION('',(-1.,0.,0.));
#420=DIRECTION('',(0.,0.,-1.));
#421=DIRECTION('',(-1.,0.,0.));
#422=DIRECTION('',(0.,0.,1.));
#423=DIRECTION('',(1.,0.,0.));
#424=DIRECTION('',(0.,0.,-1.));
#425=DIRECTION('',(-1.,0.,0.));
#426=DIRECTION('',(0.,0.,-1.));
#427=DIRECTION('',(-1.,0.,0.));
#428=DIRECTION('',(0.,0.,-1.));
#429=DIRECTION('',(-1.,0.,0.));
#430=DIRECTION('',(0.,0.,-1.));
#431=DIRECTION('',(-1.,0.,0.));
#432=DIRECTION('',(0.,0.,-1.));
#433=DIRECTION('',(-1.,0.,0.));
#434=DIRECTION('',(0.,0.,-1.));
#435=DIRECTION('',(-1.,0.,0.));
#436=DIRECTION('',(0.,0.,-1.));
#437=DIRECTION('',(-1.,0.,0.));
#438=DIRECTION('',(0.,0.,1.));
#439=DIRECTION('',(1.,0.,0.));
#440=DIRECTION('',(0.,0.,-1.));
#441=DIRECTION('',(-1.,0.,0.));
#442=DIRECTION('',(0.,0.,-1.));
#443=DIRECTION('',(-1.,0.,0.));
#444=DIRECTION('',(0.,0.,1.));
#445=DIRECTION('',(1.,0.,0.));
#446=DIRECTION('',(0.,0.,-1.));
#447=DIRECTION('',(-1.,0.,0.));
#448=DIRECTION('',(0.,0.,-1.));
#449=DIRECTION('',(-1.,0.,0.));
#450=DIRECTION('',(0.,0.,-1.));
#451=DIRECTION('',(-1.,0.,0.));
#452=DIRECTION('',(0.,0.,-1.));
#453=DIRECTION('',(-1.,0.,0.));
#454=DIRECTION('',(0.,0.,-1.));
#455=DIRECTION('',(-1.,0.,0.));
#456=DIRECTION('',(0.,0.,-1.));
#457=DIRECTION('',(0.,1.,0.));
#458=DIRECTION('',(0.,0.,-1.));
#459=DIRECTION('',(-1.,0.,0.));
#460=DIRECTION('',(0.,0.,-1.));
#461=DIRECTION('',(-1.,0.,0.));
#462=CARTESIAN_POINT('',(0.,0.,0.));
#463=CARTESIAN_POINT('',(0.,1.9,0.));
#464=CARTESIAN_POINT('',(0.,0.,0.));
#465=CARTESIAN_POINT('',(-1.65,0.,0.));
#466=CARTESIAN_POINT('',(0.,0.,0.));
#467=CARTESIAN_POINT('',(-1.9,0.,0.));
#468=CARTESIAN_POINT('',(0.,0.,0.));
#469=CARTESIAN_POINT('',(0.,0.,-0.200000000000001));
#470=CARTESIAN_POINT('',(-1.45,0.,-0.200000000000001));
#471=CARTESIAN_POINT('',(0.,0.,-8.2));
#472=CARTESIAN_POINT('',(0.,0.,-15.9));
#473=CARTESIAN_POINT('',(-1.45,0.,-15.9));
#474=CARTESIAN_POINT('',(0.,0.,-8.2));
#475=CARTESIAN_POINT('',(0.,0.,-5.1));
#476=CARTESIAN_POINT('',(-3.9,0.,-5.1));
#477=CARTESIAN_POINT('',(0.,0.,-8.2));
#478=CARTESIAN_POINT('',(-3.9,0.,-8.2));
#479=CARTESIAN_POINT('',(0.,0.,-5.1));
#480=CARTESIAN_POINT('',(0.,0.,-4.7));
#481=CARTESIAN_POINT('',(-3.5,0.,-4.7));
#482=CARTESIAN_POINT('',(0.,3.5,-4.7));
#483=CARTESIAN_POINT('',(0.,0.,-4.7));
#484=CARTESIAN_POINT('',(-3.2,0.,-4.7));
#485=CARTESIAN_POINT('',(0.,0.,-4.5));
#486=CARTESIAN_POINT('',(0.,0.,-4.5));
#487=CARTESIAN_POINT('',(-3.,0.,-4.5));
#488=CARTESIAN_POINT('',(0.,3.,-4.5));
#489=CARTESIAN_POINT('',(0.,0.,-4.5));
#490=CARTESIAN_POINT('',(-2.7,0.,-4.5));
#491=CARTESIAN_POINT('',(0.,0.,-4.3));
#492=CARTESIAN_POINT('',(0.,0.,-4.3));
#493=CARTESIAN_POINT('',(-2.5,0.,-4.3));
#494=CARTESIAN_POINT('',(0.,0.,-8.2));
#495=CARTESIAN_POINT('',(0.,0.,-0.9905));
#496=CARTESIAN_POINT('',(-2.5,0.,-0.9905));
#497=CARTESIAN_POINT('',(0.,0.,-0.9905));
#498=CARTESIAN_POINT('',(0.,0.,-0.5));
#499=CARTESIAN_POINT('',(-2.0095,0.,-0.5));
#500=CARTESIAN_POINT('',(0.,2.0095,-0.5));
#501=CARTESIAN_POINT('',(0.,0.,-0.5));
#502=CARTESIAN_POINT('',(-1.9,0.,-0.5));
#503=CARTESIAN_POINT('',(0.,0.,-8.2));
#504=CARTESIAN_POINT('',(0.,3.905,-8.2));
#505=CARTESIAN_POINT('',(0.,0.,-8.2));
#506=CARTESIAN_POINT('',(-3.905,0.,-8.2));
#507=CARTESIAN_POINT('',(0.,0.,-15.9));
#508=CARTESIAN_POINT('',(0.,0.,-16.7));
#509=CARTESIAN_POINT('',(-1.05,0.,-16.7));
#510=CARTESIAN_POINT('',(0.,0.,-19.4));
#511=CARTESIAN_POINT('',(0.,0.,-19.3385401492637));
#512=CARTESIAN_POINT('',(-1.05,0.,-19.3385401492637));
#513=CARTESIAN_POINT('',(0.,2.68882138776405E-14,-10.4));
#514=CARTESIAN_POINT('',(0.,0.,-18.5086974909661));
#515=CARTESIAN_POINT('',(-3.905,0.,-18.5086974909661));
#516=CARTESIAN_POINT('',(0.,0.,-19.4));
#517=MECHANICAL_DESIGN_GEOMETRIC_PRESENTATION_REPRESENTATION('',(#201,#202,
#203,#204,#205,#206,#207,#208,#209,#210,#211,#212,#213,#214,#215,#216,#217,
#218),#518);
#518=(
GEOMETRIC_REPRESENTATION_CONTEXT(3)
GLOBAL_UNCERTAINTY_ASSIGNED_CONTEXT((#519))
GLOBAL_UNIT_ASSIGNED_CONTEXT((#522,#521,#520))
REPRESENTATION_CONTEXT('8141085 UO-M5','TOP_LEVEL_ASSEMBLY_PART')
);
#519=UNCERTAINTY_MEASURE_WITH_UNIT(LENGTH_MEASURE(0.005),#522,
'DISTANCE_ACCURACY_VALUE','Maximum Tolerance applied to model');
#520=(
NAMED_UNIT(*)
SI_UNIT($,.STERADIAN.)
SOLID_ANGLE_UNIT()
);
#521=(
NAMED_UNIT(*)
PLANE_ANGLE_UNIT()
SI_UNIT($,.RADIAN.)
);
#522=(
LENGTH_UNIT()
NAMED_UNIT(*)
SI_UNIT(.MILLI.,.METRE.)
);
#523=PRODUCT_DEFINITION_SHAPE('','',#524);
#524=PRODUCT_DEFINITION('','',#526,#525);
#525=PRODUCT_DEFINITION_CONTEXT('',#532,'design');
#526=PRODUCT_DEFINITION_FORMATION_WITH_SPECIFIED_SOURCE('','',#528,
 .NOT_KNOWN.);
#527=PRODUCT_RELATED_PRODUCT_CATEGORY('','',(#528));
#528=PRODUCT('8141085 UO-M5','8141085 UO-M5','8141085 UO-M5',(#530));
#529=PRODUCT_CATEGORY('','');
#530=PRODUCT_CONTEXT('',#532,'mechanical');
#531=APPLICATION_PROTOCOL_DEFINITION('international standard',
'automotive_design',2010,#532);
#532=APPLICATION_CONTEXT(
'core data for automotive mechanical design processes');
ENDSEC;
END-ISO-10303-21;
