ISO-10303-21;
HEADER;
/* Generated by software containing ST-Developer
 * from STEP Tools, Inc. (www.steptools.com) 
 */
/* OPTION: using custom renumber hook */

FILE_DESCRIPTION(
/* description */ ('STEP AP214'),
/* implementation_level */ '2;1');

FILE_NAME(
/* name */ '8146543_ZBH-5-B',
/* time_stamp */ '2024-09-10T07:55:34+02:00',
/* author */ ('License CC BY-ND 4.0'),
/* organization */ ('CADENAS'),
/* preprocessor_version */ 'ST-DEVELOPER v19.3',
/* originating_system */ 'PARTsolutions',
/* authorisation */ '  ');

FILE_SCHEMA (('AUTOMOTIVE_DESIGN {1 0 10303 214 3 1 1}'));
ENDSEC;

DATA;
#10=PROPERTY_DEFINITION_REPRESENTATION(#14,#12);
#11=PROPERTY_DEFINITION_REPRESENTATION(#15,#13);
#12=REPRESENTATION('',(#16),#197);
#13=REPRESENTATION('',(#17),#197);
#14=PROPERTY_DEFINITION('pmi validation property','',#202);
#15=PROPERTY_DEFINITION('pmi validation property','',#202);
#16=VALUE_REPRESENTATION_ITEM('number of annotations',COUNT_MEASURE(0.));
#17=VALUE_REPRESENTATION_ITEM('number of views',COUNT_MEASURE(0.));
#18=SHAPE_REPRESENTATION_RELATIONSHIP('','',#115,#19);
#19=ADVANCED_BREP_SHAPE_REPRESENTATION('',(#113),#197);
#20=PLANE('',#125);
#21=PLANE('',#126);
#22=B_SPLINE_CURVE_WITH_KNOTS('',3,(#164,#165,#166,#167,#168),
 .UNSPECIFIED.,.F.,.F.,(4,1,4),(1.97170664029638E-7,0.000547301398964857,
0.00109440562726568),.UNSPECIFIED.);
#23=B_SPLINE_CURVE_WITH_KNOTS('',3,(#172,#173,#174,#175,#176),
 .UNSPECIFIED.,.F.,.F.,(4,1,4),(1.97170332714919E-7,0.000547301192592122,
0.00109440521485153),.UNSPECIFIED.);
#24=B_SPLINE_CURVE_WITH_KNOTS('',3,(#184,#185,#186,#187,#188),
 .UNSPECIFIED.,.F.,.F.,(4,1,4),(1.97170664029477E-7,0.000547301398964857,
0.00109440562726568),.UNSPECIFIED.);
#25=B_SPLINE_CURVE_WITH_KNOTS('',3,(#189,#190,#191,#192,#193),
 .UNSPECIFIED.,.F.,.F.,(4,1,4),(1.97170332714348E-7,0.000547301192592122,
0.00109440521485153),.UNSPECIFIED.);
#26=TOROIDAL_SURFACE('',#120,2.15,0.35);
#27=TOROIDAL_SURFACE('',#124,2.15,0.35);
#28=LINE('',#158,#32);
#29=LINE('',#162,#33);
#30=LINE('',#178,#34);
#31=LINE('',#182,#35);
#32=VECTOR('',#133,1000.);
#33=VECTOR('',#136,1000.);
#34=VECTOR('',#143,1000.);
#35=VECTOR('',#146,1000.);
#36=ORIENTED_EDGE('',*,*,#60,.F.);
#37=ORIENTED_EDGE('',*,*,#61,.T.);
#38=ORIENTED_EDGE('',*,*,#62,.T.);
#39=ORIENTED_EDGE('',*,*,#63,.T.);
#40=ORIENTED_EDGE('',*,*,#62,.F.);
#41=ORIENTED_EDGE('',*,*,#64,.T.);
#42=ORIENTED_EDGE('',*,*,#65,.T.);
#43=ORIENTED_EDGE('',*,*,#66,.T.);
#44=ORIENTED_EDGE('',*,*,#65,.F.);
#45=ORIENTED_EDGE('',*,*,#67,.T.);
#46=ORIENTED_EDGE('',*,*,#68,.T.);
#47=ORIENTED_EDGE('',*,*,#69,.T.);
#48=ORIENTED_EDGE('',*,*,#60,.T.);
#49=ORIENTED_EDGE('',*,*,#70,.T.);
#50=ORIENTED_EDGE('',*,*,#68,.F.);
#51=ORIENTED_EDGE('',*,*,#71,.T.);
#52=ORIENTED_EDGE('',*,*,#71,.F.);
#53=ORIENTED_EDGE('',*,*,#67,.F.);
#54=ORIENTED_EDGE('',*,*,#64,.F.);
#55=ORIENTED_EDGE('',*,*,#61,.F.);
#56=ORIENTED_EDGE('',*,*,#66,.F.);
#57=ORIENTED_EDGE('',*,*,#69,.F.);
#58=ORIENTED_EDGE('',*,*,#70,.F.);
#59=ORIENTED_EDGE('',*,*,#63,.F.);
#60=EDGE_CURVE('',#72,#73,#80,.T.);
#61=EDGE_CURVE('',#72,#74,#28,.F.);
#62=EDGE_CURVE('',#74,#75,#81,.T.);
#63=EDGE_CURVE('',#75,#73,#29,.T.);
#64=EDGE_CURVE('',#74,#76,#22,.T.);
#65=EDGE_CURVE('',#76,#77,#82,.T.);
#66=EDGE_CURVE('',#77,#75,#23,.T.);
#67=EDGE_CURVE('',#76,#78,#30,.T.);
#68=EDGE_CURVE('',#78,#79,#83,.T.);
#69=EDGE_CURVE('',#79,#77,#31,.F.);
#70=EDGE_CURVE('',#73,#79,#24,.T.);
#71=EDGE_CURVE('',#78,#72,#25,.T.);
#72=VERTEX_POINT('',#156);
#73=VERTEX_POINT('',#157);
#74=VERTEX_POINT('',#159);
#75=VERTEX_POINT('',#161);
#76=VERTEX_POINT('',#169);
#77=VERTEX_POINT('',#171);
#78=VERTEX_POINT('',#179);
#79=VERTEX_POINT('',#181);
#80=CIRCLE('',#118,2.5);
#81=CIRCLE('',#119,2.5);
#82=CIRCLE('',#121,1.8);
#83=CIRCLE('',#123,1.8);
#84=EDGE_LOOP('',(#36,#37,#38,#39));
#85=EDGE_LOOP('',(#40,#41,#42,#43));
#86=EDGE_LOOP('',(#44,#45,#46,#47));
#87=EDGE_LOOP('',(#48,#49,#50,#51));
#88=EDGE_LOOP('',(#52,#53,#54,#55));
#89=EDGE_LOOP('',(#56,#57,#58,#59));
#90=FACE_BOUND('',#84,.T.);
#91=FACE_BOUND('',#85,.T.);
#92=FACE_BOUND('',#86,.T.);
#93=FACE_BOUND('',#87,.T.);
#94=FACE_BOUND('',#88,.T.);
#95=FACE_BOUND('',#89,.T.);
#96=CYLINDRICAL_SURFACE('',#117,2.5);
#97=CYLINDRICAL_SURFACE('',#122,1.8);
#98=ADVANCED_FACE('',(#90),#96,.T.);
#99=ADVANCED_FACE('',(#91),#26,.T.);
#100=ADVANCED_FACE('',(#92),#97,.F.);
#101=ADVANCED_FACE('',(#93),#27,.T.);
#102=ADVANCED_FACE('',(#94),#20,.T.);
#103=ADVANCED_FACE('',(#95),#21,.T.);
#104=CLOSED_SHELL('',(#98,#99,#100,#101,#102,#103));
#105=STYLED_ITEM('',(#106),#113);
#106=PRESENTATION_STYLE_ASSIGNMENT((#107));
#107=SURFACE_STYLE_USAGE(.BOTH.,#108);
#108=SURFACE_SIDE_STYLE('',(#109));
#109=SURFACE_STYLE_FILL_AREA(#110);
#110=FILL_AREA_STYLE('',(#111));
#111=FILL_AREA_STYLE_COLOUR('',#112);
#112=COLOUR_RGB('',0.689999997615814,0.689999997615814,0.689999997615814);
#113=MANIFOLD_SOLID_BREP('8146543 ZBH-5-B',#104);
#114=SHAPE_DEFINITION_REPRESENTATION(#202,#115);
#115=SHAPE_REPRESENTATION('8146543 ZBH-5-B',(#116),#197);
#116=AXIS2_PLACEMENT_3D('',#153,#127,#128);
#117=AXIS2_PLACEMENT_3D('',#154,#129,#130);
#118=AXIS2_PLACEMENT_3D('',#155,#131,#132);
#119=AXIS2_PLACEMENT_3D('',#160,#134,#135);
#120=AXIS2_PLACEMENT_3D('',#163,#137,#138);
#121=AXIS2_PLACEMENT_3D('',#170,#139,#140);
#122=AXIS2_PLACEMENT_3D('',#177,#141,#142);
#123=AXIS2_PLACEMENT_3D('',#180,#144,#145);
#124=AXIS2_PLACEMENT_3D('',#183,#147,#148);
#125=AXIS2_PLACEMENT_3D('',#194,#149,#150);
#126=AXIS2_PLACEMENT_3D('',#195,#151,#152);
#127=DIRECTION('',(0.,0.,1.));
#128=DIRECTION('',(1.,0.,0.));
#129=DIRECTION('',(1.,0.,0.));
#130=DIRECTION('',(0.,0.,-1.));
#131=DIRECTION('',(1.,0.,0.));
#132=DIRECTION('',(0.,0.,-1.));
#133=DIRECTION('',(1.,0.,0.));
#134=DIRECTION('',(1.,0.,0.));
#135=DIRECTION('',(0.,0.,-1.));
#136=DIRECTION('',(1.,0.,0.));
#137=DIRECTION('',(1.,0.,0.));
#138=DIRECTION('',(0.,0.,-1.));
#139=DIRECTION('',(1.,0.,0.));
#140=DIRECTION('',(0.,0.,-1.));
#141=DIRECTION('',(1.,0.,0.));
#142=DIRECTION('',(0.,0.,-1.));
#143=DIRECTION('',(1.,0.,0.));
#144=DIRECTION('',(1.,0.,0.));
#145=DIRECTION('',(0.,0.,-1.));
#146=DIRECTION('',(1.,0.,0.));
#147=DIRECTION('',(1.,0.,0.));
#148=DIRECTION('',(0.,0.,-1.));
#149=DIRECTION('',(0.,0.999390827019096,0.0348994967025009));
#150=DIRECTION('',(0.,-0.0348994967025009,0.999390827019096));
#151=DIRECTION('',(0.,-0.999390827019096,0.0348994967025009));
#152=DIRECTION('',(0.,-0.0348994967025009,-0.999390827019096));
#153=CARTESIAN_POINT('',(0.,0.,0.));
#154=CARTESIAN_POINT('',(2.3,0.,0.));
#155=CARTESIAN_POINT('',(1.95,0.,0.));
#156=CARTESIAN_POINT('',(1.95,-0.0344372256148335,2.49976280424602));
#157=CARTESIAN_POINT('',(1.95,0.034437225614834,2.49976280424603));
#158=CARTESIAN_POINT('',(2.3,-0.0344372256148335,2.49976280424602));
#159=CARTESIAN_POINT('',(0.35,-0.0344372256148335,2.49976280424603));
#160=CARTESIAN_POINT('',(0.35,0.,0.));
#161=CARTESIAN_POINT('',(0.35,0.034437225614834,2.49976280424602));
#162=CARTESIAN_POINT('',(2.3,0.034437225614834,2.49976280424602));
#163=CARTESIAN_POINT('',(0.35,0.,0.));
#164=CARTESIAN_POINT('',(0.35,-0.0344372256148335,2.49976280424603));
#165=CARTESIAN_POINT('',(0.165023972620925,-0.0344372256148336,2.49976280424603));
#166=CARTESIAN_POINT('',(-0.165017465127273,-0.0222355607481366,2.15035283865004));
#167=CARTESIAN_POINT('',(0.165011247075545,-0.00999999999998418,1.79997222200745));
#168=CARTESIAN_POINT('',(0.349999999999976,-0.00999999999998374,1.79997222200743));
#169=CARTESIAN_POINT('',(0.35,-0.00999999999999949,1.79997222200788));
#170=CARTESIAN_POINT('',(0.35,0.,0.));
#171=CARTESIAN_POINT('',(0.35,0.00999999999999993,1.79997222200788));
#172=CARTESIAN_POINT('',(0.35,0.00999999999999994,1.79997222200788));
#173=CARTESIAN_POINT('',(0.165023733849084,0.00999999999999994,1.79997222200788));
#174=CARTESIAN_POINT('',(-0.165017559747922,0.0222024811589566,2.14940556315577));
#175=CARTESIAN_POINT('',(0.165011739149351,0.0344372256148494,2.49976280424647));
#176=CARTESIAN_POINT('',(0.349999999999977,0.0344372256148498,2.49976280424648));
#177=CARTESIAN_POINT('',(2.3,0.,0.));
#178=CARTESIAN_POINT('',(2.3,-0.00999999999999949,1.79997222200788));
#179=CARTESIAN_POINT('',(1.95,-0.00999999999999949,1.79997222200788));
#180=CARTESIAN_POINT('',(1.95,0.,0.));
#181=CARTESIAN_POINT('',(1.95,0.00999999999999994,1.79997222200788));
#182=CARTESIAN_POINT('',(2.3,0.00999999999999993,1.79997222200788));
#183=CARTESIAN_POINT('',(1.95,0.,0.));
#184=CARTESIAN_POINT('',(1.95,0.034437225614834,2.49976280424603));
#185=CARTESIAN_POINT('',(2.13497602737907,0.034437225614834,2.49976280424603));
#186=CARTESIAN_POINT('',(2.46501746512727,0.022235560748137,2.15035283865004));
#187=CARTESIAN_POINT('',(2.13498875292445,0.00999999999998461,1.79997222200745));
#188=CARTESIAN_POINT('',(1.95000000000002,0.00999999999998418,1.79997222200743));
#189=CARTESIAN_POINT('',(1.95,-0.00999999999999951,1.79997222200788));
#190=CARTESIAN_POINT('',(2.13497626615092,-0.0099999999999995,1.79997222200788));
#191=CARTESIAN_POINT('',(2.46501755974792,-0.0222024811589562,2.14940556315578));
#192=CARTESIAN_POINT('',(2.13498826085065,-0.0344372256148489,2.49976280424647));
#193=CARTESIAN_POINT('',(1.95000000000002,-0.0344372256148493,2.49976280424648));
#194=CARTESIAN_POINT('',(2.3,-0.0693422884696833,3.49931302501359));
#195=CARTESIAN_POINT('',(2.3,2.22044604925031E-16,1.51360968917874));
#196=MECHANICAL_DESIGN_GEOMETRIC_PRESENTATION_REPRESENTATION('',(#105),
#197);
#197=(
GEOMETRIC_REPRESENTATION_CONTEXT(3)
GLOBAL_UNCERTAINTY_ASSIGNED_CONTEXT((#198))
GLOBAL_UNIT_ASSIGNED_CONTEXT((#201,#200,#199))
REPRESENTATION_CONTEXT('8146543 ZBH-5-B','TOP_LEVEL_ASSEMBLY_PART')
);
#198=UNCERTAINTY_MEASURE_WITH_UNIT(LENGTH_MEASURE(0.005),#201,
'DISTANCE_ACCURACY_VALUE','Maximum Tolerance applied to model');
#199=(
NAMED_UNIT(*)
SI_UNIT($,.STERADIAN.)
SOLID_ANGLE_UNIT()
);
#200=(
NAMED_UNIT(*)
PLANE_ANGLE_UNIT()
SI_UNIT($,.RADIAN.)
);
#201=(
LENGTH_UNIT()
NAMED_UNIT(*)
SI_UNIT(.MILLI.,.METRE.)
);
#202=PRODUCT_DEFINITION_SHAPE('','',#203);
#203=PRODUCT_DEFINITION('','',#205,#204);
#204=PRODUCT_DEFINITION_CONTEXT('',#211,'design');
#205=PRODUCT_DEFINITION_FORMATION_WITH_SPECIFIED_SOURCE('','',#207,
 .NOT_KNOWN.);
#206=PRODUCT_RELATED_PRODUCT_CATEGORY('','',(#207));
#207=PRODUCT('8146543 ZBH-5-B','8146543 ZBH-5-B','8146543 ZBH-5-B',(#209));
#208=PRODUCT_CATEGORY('','');
#209=PRODUCT_CONTEXT('',#211,'mechanical');
#210=APPLICATION_PROTOCOL_DEFINITION('international standard',
'automotive_design',2010,#211);
#211=APPLICATION_CONTEXT(
'core data for automotive mechanical design processes');
ENDSEC;
END-ISO-10303-21;
