ISO-10303-21;
HEADER;
/* Generated by software containing ST-Developer
 * from STEP Tools, Inc. (www.steptools.com) 
 */
/* OPTION: using custom renumber hook */

FILE_DESCRIPTION(
/* description */ ('STEP AP214'),
/* implementation_level */ '2;1');

FILE_NAME(
/* name */ '8148809_HBN-S-8X1-F1A',
/* time_stamp */ '2024-08-29T02:15:04+02:00',
/* author */ ('License CC BY-ND 4.0'),
/* organization */ ('CADENAS'),
/* preprocessor_version */ 'ST-DEVELOPER v19.3',
/* originating_system */ 'PARTsolutions',
/* authorisation */ '  ');

FILE_SCHEMA (('MODEL_BASED_INTEGRATED_MANUFACTURING_SCHEMA','AUTOMOTIVE_DESIGN {1 0 10303 214 3 1 1}'));
ENDSEC;

DATA;
#10=PROPERTY_DEFINITION_REPRESENTATION(#14,#12);
#11=PROPERTY_DEFINITION_REPRESENTATION(#15,#13);
#12=REPRESENTATION('',(#16),#535);
#13=REPRESENTATION('',(#17),#535);
#14=PROPERTY_DEFINITION('pmi validation property','',#542);
#15=PROPERTY_DEFINITION('pmi validation property','',#542);
#16=VALUE_REPRESENTATION_ITEM('number of annotations',COUNT_MEASURE(0.));
#17=VALUE_REPRESENTATION_ITEM('number of views',COUNT_MEASURE(0.));
#18=CONTEXT_DEPENDENT_SHAPE_REPRESENTATION(#20,#544);
#19=NEXT_ASSEMBLY_USAGE_OCCURRENCE('NAUO1',
'8148809 HBN-S-8X1-F1A---(1)','8148809 HBN-S-8X1-F1A---(1)',#545,#546,
'');
#20=(
REPRESENTATION_RELATIONSHIP(' ',' ',#323,#322)
REPRESENTATION_RELATIONSHIP_WITH_TRANSFORMATION(#21)
SHAPE_REPRESENTATION_RELATIONSHIP()
);
#21=ITEM_DEFINED_TRANSFORMATION(' ',' ',#324,#358);
#22=SHAPE_REPRESENTATION_RELATIONSHIP('','',#323,#23);
#23=ADVANCED_BREP_SHAPE_REPRESENTATION('',(#319),#536);
#24=CYLINDRICAL_SURFACE('',#337,3.);
#25=CYLINDRICAL_SURFACE('',#349,0.999999999999999);
#26=CYLINDRICAL_SURFACE('',#350,7.00000000000001);
#27=CYLINDRICAL_SURFACE('',#353,4.05);
#28=CYLINDRICAL_SURFACE('',#354,2.25);
#29=CYLINDRICAL_SURFACE('',#355,2.25);
#30=CYLINDRICAL_SURFACE('',#356,2.5);
#31=CYLINDRICAL_SURFACE('',#357,2.5);
#32=LINE('',#455,#54);
#33=LINE('',#460,#55);
#34=LINE('',#462,#56);
#35=LINE('',#466,#57);
#36=LINE('',#469,#58);
#37=LINE('',#471,#59);
#38=LINE('',#475,#60);
#39=LINE('',#478,#61);
#40=LINE('',#480,#62);
#41=LINE('',#483,#63);
#42=LINE('',#486,#64);
#43=LINE('',#489,#65);
#44=LINE('',#491,#66);
#45=LINE('',#494,#67);
#46=LINE('',#497,#68);
#47=LINE('',#503,#69);
#48=LINE('',#509,#70);
#49=LINE('',#512,#71);
#50=LINE('',#513,#72);
#51=LINE('',#521,#73);
#52=LINE('',#524,#74);
#53=LINE('',#525,#75);
#54=VECTOR('',#365,1000.);
#55=VECTOR('',#368,1000.);
#56=VECTOR('',#369,1000.);
#57=VECTOR('',#374,1000.);
#58=VECTOR('',#375,1000.);
#59=VECTOR('',#376,1000.);
#60=VECTOR('',#381,1000.);
#61=VECTOR('',#382,1000.);
#62=VECTOR('',#383,1000.);
#63=VECTOR('',#386,1000.);
#64=VECTOR('',#391,1000.);
#65=VECTOR('',#392,1000.);
#66=VECTOR('',#393,1000.);
#67=VECTOR('',#396,1000.);
#68=VECTOR('',#401,1000.);
#69=VECTOR('',#408,1000.);
#70=VECTOR('',#415,1000.);
#71=VECTOR('',#416,1000.);
#72=VECTOR('',#417,1000.);
#73=VECTOR('',#428,1000.);
#74=VECTOR('',#433,1000.);
#75=VECTOR('',#434,1000.);
#76=ORIENTED_EDGE('',*,*,#152,.T.);
#77=ORIENTED_EDGE('',*,*,#153,.T.);
#78=ORIENTED_EDGE('',*,*,#154,.F.);
#79=ORIENTED_EDGE('',*,*,#155,.T.);
#80=ORIENTED_EDGE('',*,*,#156,.F.);
#81=ORIENTED_EDGE('',*,*,#157,.F.);
#82=ORIENTED_EDGE('',*,*,#158,.F.);
#83=ORIENTED_EDGE('',*,*,#159,.T.);
#84=ORIENTED_EDGE('',*,*,#160,.F.);
#85=ORIENTED_EDGE('',*,*,#161,.T.);
#86=ORIENTED_EDGE('',*,*,#162,.T.);
#87=ORIENTED_EDGE('',*,*,#163,.T.);
#88=ORIENTED_EDGE('',*,*,#164,.T.);
#89=ORIENTED_EDGE('',*,*,#165,.F.);
#90=ORIENTED_EDGE('',*,*,#166,.T.);
#91=ORIENTED_EDGE('',*,*,#167,.T.);
#92=ORIENTED_EDGE('',*,*,#168,.F.);
#93=ORIENTED_EDGE('',*,*,#169,.T.);
#94=ORIENTED_EDGE('',*,*,#170,.F.);
#95=ORIENTED_EDGE('',*,*,#171,.F.);
#96=ORIENTED_EDGE('',*,*,#172,.F.);
#97=ORIENTED_EDGE('',*,*,#173,.T.);
#98=ORIENTED_EDGE('',*,*,#171,.T.);
#99=ORIENTED_EDGE('',*,*,#174,.F.);
#100=ORIENTED_EDGE('',*,*,#167,.F.);
#101=ORIENTED_EDGE('',*,*,#156,.T.);
#102=ORIENTED_EDGE('',*,*,#175,.F.);
#103=ORIENTED_EDGE('',*,*,#176,.F.);
#104=ORIENTED_EDGE('',*,*,#177,.F.);
#105=ORIENTED_EDGE('',*,*,#178,.T.);
#106=ORIENTED_EDGE('',*,*,#162,.F.);
#107=ORIENTED_EDGE('',*,*,#174,.T.);
#108=ORIENTED_EDGE('',*,*,#170,.T.);
#109=ORIENTED_EDGE('',*,*,#179,.T.);
#110=ORIENTED_EDGE('',*,*,#180,.F.);
#111=ORIENTED_EDGE('',*,*,#181,.T.);
#112=ORIENTED_EDGE('',*,*,#177,.T.);
#113=ORIENTED_EDGE('',*,*,#182,.T.);
#114=ORIENTED_EDGE('',*,*,#183,.T.);
#115=ORIENTED_EDGE('',*,*,#184,.T.);
#116=ORIENTED_EDGE('',*,*,#164,.F.);
#117=ORIENTED_EDGE('',*,*,#185,.T.);
#118=ORIENTED_EDGE('',*,*,#180,.T.);
#119=ORIENTED_EDGE('',*,*,#186,.T.);
#120=ORIENTED_EDGE('',*,*,#168,.T.);
#121=ORIENTED_EDGE('',*,*,#187,.F.);
#122=ORIENTED_EDGE('',*,*,#173,.F.);
#123=ORIENTED_EDGE('',*,*,#159,.F.);
#124=ORIENTED_EDGE('',*,*,#165,.T.);
#125=ORIENTED_EDGE('',*,*,#187,.T.);
#126=ORIENTED_EDGE('',*,*,#154,.T.);
#127=ORIENTED_EDGE('',*,*,#188,.F.);
#128=ORIENTED_EDGE('',*,*,#161,.F.);
#129=ORIENTED_EDGE('',*,*,#189,.T.);
#130=ORIENTED_EDGE('',*,*,#153,.F.);
#131=ORIENTED_EDGE('',*,*,#166,.F.);
#132=ORIENTED_EDGE('',*,*,#158,.T.);
#133=ORIENTED_EDGE('',*,*,#188,.T.);
#134=ORIENTED_EDGE('',*,*,#155,.F.);
#135=ORIENTED_EDGE('',*,*,#189,.F.);
#136=ORIENTED_EDGE('',*,*,#160,.T.);
#137=ORIENTED_EDGE('',*,*,#172,.T.);
#138=ORIENTED_EDGE('',*,*,#157,.T.);
#139=ORIENTED_EDGE('',*,*,#152,.F.);
#140=ORIENTED_EDGE('',*,*,#176,.T.);
#141=ORIENTED_EDGE('',*,*,#184,.F.);
#142=ORIENTED_EDGE('',*,*,#175,.T.);
#143=ORIENTED_EDGE('',*,*,#183,.F.);
#144=ORIENTED_EDGE('',*,*,#178,.F.);
#145=ORIENTED_EDGE('',*,*,#181,.F.);
#146=ORIENTED_EDGE('',*,*,#185,.F.);
#147=ORIENTED_EDGE('',*,*,#163,.F.);
#148=ORIENTED_EDGE('',*,*,#179,.F.);
#149=ORIENTED_EDGE('',*,*,#169,.F.);
#150=ORIENTED_EDGE('',*,*,#186,.F.);
#151=ORIENTED_EDGE('',*,*,#182,.F.);
#152=EDGE_CURVE('',#190,#190,#216,.T.);
#153=EDGE_CURVE('',#191,#192,#32,.T.);
#154=EDGE_CURVE('',#193,#192,#217,.T.);
#155=EDGE_CURVE('',#193,#194,#33,.T.);
#156=EDGE_CURVE('',#191,#194,#34,.T.);
#157=EDGE_CURVE('',#195,#195,#218,.T.);
#158=EDGE_CURVE('',#196,#197,#35,.T.);
#159=EDGE_CURVE('',#196,#198,#36,.T.);
#160=EDGE_CURVE('',#199,#198,#37,.T.);
#161=EDGE_CURVE('',#199,#197,#219,.T.);
#162=EDGE_CURVE('',#200,#201,#38,.T.);
#163=EDGE_CURVE('',#201,#202,#39,.T.);
#164=EDGE_CURVE('',#202,#203,#40,.T.);
#165=EDGE_CURVE('',#196,#203,#220,.T.);
#166=EDGE_CURVE('',#196,#191,#41,.T.);
#167=EDGE_CURVE('',#191,#200,#221,.T.);
#168=EDGE_CURVE('',#204,#205,#42,.T.);
#169=EDGE_CURVE('',#204,#206,#43,.F.);
#170=EDGE_CURVE('',#207,#206,#44,.T.);
#171=EDGE_CURVE('',#194,#207,#222,.T.);
#172=EDGE_CURVE('',#198,#194,#45,.T.);
#173=EDGE_CURVE('',#198,#205,#223,.T.);
#174=EDGE_CURVE('',#200,#207,#46,.T.);
#175=EDGE_CURVE('',#208,#208,#224,.T.);
#176=EDGE_CURVE('',#209,#209,#225,.T.);
#177=EDGE_CURVE('',#210,#211,#47,.T.);
#178=EDGE_CURVE('',#210,#201,#226,.F.);
#179=EDGE_CURVE('',#206,#211,#227,.F.);
#180=EDGE_CURVE('',#212,#213,#48,.T.);
#181=EDGE_CURVE('',#212,#210,#49,.F.);
#182=EDGE_CURVE('',#211,#213,#50,.T.);
#183=EDGE_CURVE('',#214,#214,#228,.T.);
#184=EDGE_CURVE('',#215,#215,#229,.T.);
#185=EDGE_CURVE('',#202,#212,#230,.F.);
#186=EDGE_CURVE('',#213,#204,#231,.F.);
#187=EDGE_CURVE('',#203,#205,#51,.T.);
#188=EDGE_CURVE('',#197,#192,#52,.T.);
#189=EDGE_CURVE('',#199,#193,#53,.T.);
#190=VERTEX_POINT('',#454);
#191=VERTEX_POINT('',#456);
#192=VERTEX_POINT('',#457);
#193=VERTEX_POINT('',#459);
#194=VERTEX_POINT('',#461);
#195=VERTEX_POINT('',#465);
#196=VERTEX_POINT('',#467);
#197=VERTEX_POINT('',#468);
#198=VERTEX_POINT('',#470);
#199=VERTEX_POINT('',#472);
#200=VERTEX_POINT('',#476);
#201=VERTEX_POINT('',#477);
#202=VERTEX_POINT('',#479);
#203=VERTEX_POINT('',#481);
#204=VERTEX_POINT('',#487);
#205=VERTEX_POINT('',#488);
#206=VERTEX_POINT('',#490);
#207=VERTEX_POINT('',#492);
#208=VERTEX_POINT('',#500);
#209=VERTEX_POINT('',#502);
#210=VERTEX_POINT('',#504);
#211=VERTEX_POINT('',#505);
#212=VERTEX_POINT('',#510);
#213=VERTEX_POINT('',#511);
#214=VERTEX_POINT('',#516);
#215=VERTEX_POINT('',#518);
#216=CIRCLE('',#326,4.05);
#217=CIRCLE('',#327,7.00000000000001);
#218=CIRCLE('',#329,4.05);
#219=CIRCLE('',#330,7.00000000000001);
#220=CIRCLE('',#332,0.999999999999999);
#221=CIRCLE('',#333,3.);
#222=CIRCLE('',#335,3.);
#223=CIRCLE('',#336,0.999999999999999);
#224=CIRCLE('',#339,2.25);
#225=CIRCLE('',#340,2.25);
#226=CIRCLE('',#341,2.5);
#227=CIRCLE('',#342,2.5);
#228=CIRCLE('',#345,2.25);
#229=CIRCLE('',#346,2.25);
#230=CIRCLE('',#347,2.5);
#231=CIRCLE('',#348,2.5);
#232=EDGE_LOOP('',(#76));
#233=EDGE_LOOP('',(#77,#78,#79,#80));
#234=EDGE_LOOP('',(#81));
#235=EDGE_LOOP('',(#82,#83,#84,#85));
#236=EDGE_LOOP('',(#86,#87,#88,#89,#90,#91));
#237=EDGE_LOOP('',(#92,#93,#94,#95,#96,#97));
#238=EDGE_LOOP('',(#98,#99,#100,#101));
#239=EDGE_LOOP('',(#102));
#240=EDGE_LOOP('',(#103));
#241=EDGE_LOOP('',(#104,#105,#106,#107,#108,#109));
#242=EDGE_LOOP('',(#110,#111,#112,#113));
#243=EDGE_LOOP('',(#114));
#244=EDGE_LOOP('',(#115));
#245=EDGE_LOOP('',(#116,#117,#118,#119,#120,#121));
#246=EDGE_LOOP('',(#122,#123,#124,#125));
#247=EDGE_LOOP('',(#126,#127,#128,#129));
#248=EDGE_LOOP('',(#130,#131,#132,#133));
#249=EDGE_LOOP('',(#134,#135,#136,#137));
#250=EDGE_LOOP('',(#138));
#251=EDGE_LOOP('',(#139));
#252=EDGE_LOOP('',(#140));
#253=EDGE_LOOP('',(#141));
#254=EDGE_LOOP('',(#142));
#255=EDGE_LOOP('',(#143));
#256=EDGE_LOOP('',(#144,#145,#146,#147));
#257=EDGE_LOOP('',(#148,#149,#150,#151));
#258=FACE_BOUND('',#232,.T.);
#259=FACE_BOUND('',#233,.T.);
#260=FACE_BOUND('',#234,.T.);
#261=FACE_BOUND('',#235,.T.);
#262=FACE_BOUND('',#236,.T.);
#263=FACE_BOUND('',#237,.T.);
#264=FACE_BOUND('',#238,.T.);
#265=FACE_BOUND('',#239,.T.);
#266=FACE_BOUND('',#240,.T.);
#267=FACE_BOUND('',#241,.T.);
#268=FACE_BOUND('',#242,.T.);
#269=FACE_BOUND('',#243,.T.);
#270=FACE_BOUND('',#244,.T.);
#271=FACE_BOUND('',#245,.T.);
#272=FACE_BOUND('',#246,.T.);
#273=FACE_BOUND('',#247,.T.);
#274=FACE_BOUND('',#248,.T.);
#275=FACE_BOUND('',#249,.T.);
#276=FACE_BOUND('',#250,.T.);
#277=FACE_BOUND('',#251,.T.);
#278=FACE_BOUND('',#252,.T.);
#279=FACE_BOUND('',#253,.T.);
#280=FACE_BOUND('',#254,.T.);
#281=FACE_BOUND('',#255,.T.);
#282=FACE_BOUND('',#256,.T.);
#283=FACE_BOUND('',#257,.T.);
#284=PLANE('',#325);
#285=PLANE('',#328);
#286=PLANE('',#331);
#287=PLANE('',#334);
#288=PLANE('',#338);
#289=PLANE('',#343);
#290=PLANE('',#344);
#291=PLANE('',#351);
#292=PLANE('',#352);
#293=ADVANCED_FACE('',(#258,#259),#284,.F.);
#294=ADVANCED_FACE('',(#260,#261),#285,.F.);
#295=ADVANCED_FACE('',(#262),#286,.T.);
#296=ADVANCED_FACE('',(#263),#287,.F.);
#297=ADVANCED_FACE('',(#264),#24,.T.);
#298=ADVANCED_FACE('',(#265,#266,#267),#288,.F.);
#299=ADVANCED_FACE('',(#268),#289,.F.);
#300=ADVANCED_FACE('',(#269,#270,#271),#290,.F.);
#301=ADVANCED_FACE('',(#272),#25,.F.);
#302=ADVANCED_FACE('',(#273),#26,.T.);
#303=ADVANCED_FACE('',(#274),#291,.T.);
#304=ADVANCED_FACE('',(#275),#292,.T.);
#305=ADVANCED_FACE('',(#276,#277),#27,.F.);
#306=ADVANCED_FACE('',(#278,#279),#28,.F.);
#307=ADVANCED_FACE('',(#280,#281),#29,.F.);
#308=ADVANCED_FACE('',(#282),#30,.T.);
#309=ADVANCED_FACE('',(#283),#31,.T.);
#310=CLOSED_SHELL('',(#293,#294,#295,#296,#297,#298,#299,#300,#301,#302,
#303,#304,#305,#306,#307,#308,#309));
#311=STYLED_ITEM('',(#312),#319);
#312=PRESENTATION_STYLE_ASSIGNMENT((#313));
#313=SURFACE_STYLE_USAGE(.BOTH.,#314);
#314=SURFACE_SIDE_STYLE('',(#315));
#315=SURFACE_STYLE_FILL_AREA(#316);
#316=FILL_AREA_STYLE('',(#317));
#317=FILL_AREA_STYLE_COLOUR('',#318);
#318=COLOUR_RGB('',0.689999997615814,0.689999997615814,0.689999997615814);
#319=MANIFOLD_SOLID_BREP('8148809 HBN-S-8X1-F1A---(1)',#310);
#320=SHAPE_DEFINITION_REPRESENTATION(#542,#322);
#321=SHAPE_DEFINITION_REPRESENTATION(#543,#323);
#322=SHAPE_REPRESENTATION('8148809 HBN-S-8X1-F1A---(0)',(#324,#358),#535);
#323=SHAPE_REPRESENTATION('8148809 HBN-S-8X1-F1A---(1)',(#324),#536);
#324=AXIS2_PLACEMENT_3D('',#451,#359,#360);
#325=AXIS2_PLACEMENT_3D('',#452,#361,#362);
#326=AXIS2_PLACEMENT_3D('',#453,#363,#364);
#327=AXIS2_PLACEMENT_3D('',#458,#366,#367);
#328=AXIS2_PLACEMENT_3D('',#463,#370,#371);
#329=AXIS2_PLACEMENT_3D('',#464,#372,#373);
#330=AXIS2_PLACEMENT_3D('',#473,#377,#378);
#331=AXIS2_PLACEMENT_3D('',#474,#379,#380);
#332=AXIS2_PLACEMENT_3D('',#482,#384,#385);
#333=AXIS2_PLACEMENT_3D('',#484,#387,#388);
#334=AXIS2_PLACEMENT_3D('',#485,#389,#390);
#335=AXIS2_PLACEMENT_3D('',#493,#394,#395);
#336=AXIS2_PLACEMENT_3D('',#495,#397,#398);
#337=AXIS2_PLACEMENT_3D('',#496,#399,#400);
#338=AXIS2_PLACEMENT_3D('',#498,#402,#403);
#339=AXIS2_PLACEMENT_3D('',#499,#404,#405);
#340=AXIS2_PLACEMENT_3D('',#501,#406,#407);
#341=AXIS2_PLACEMENT_3D('',#506,#409,#410);
#342=AXIS2_PLACEMENT_3D('',#507,#411,#412);
#343=AXIS2_PLACEMENT_3D('',#508,#413,#414);
#344=AXIS2_PLACEMENT_3D('',#514,#418,#419);
#345=AXIS2_PLACEMENT_3D('',#515,#420,#421);
#346=AXIS2_PLACEMENT_3D('',#517,#422,#423);
#347=AXIS2_PLACEMENT_3D('',#519,#424,#425);
#348=AXIS2_PLACEMENT_3D('',#520,#426,#427);
#349=AXIS2_PLACEMENT_3D('',#522,#429,#430);
#350=AXIS2_PLACEMENT_3D('',#523,#431,#432);
#351=AXIS2_PLACEMENT_3D('',#526,#435,#436);
#352=AXIS2_PLACEMENT_3D('',#527,#437,#438);
#353=AXIS2_PLACEMENT_3D('',#528,#439,#440);
#354=AXIS2_PLACEMENT_3D('',#529,#441,#442);
#355=AXIS2_PLACEMENT_3D('',#530,#443,#444);
#356=AXIS2_PLACEMENT_3D('',#531,#445,#446);
#357=AXIS2_PLACEMENT_3D('',#532,#447,#448);
#358=AXIS2_PLACEMENT_3D('',#533,#449,#450);
#359=DIRECTION('',(0.,0.,1.));
#360=DIRECTION('',(1.,0.,0.));
#361=DIRECTION('',(1.,0.,0.));
#362=DIRECTION('',(0.,0.,-1.));
#363=DIRECTION('',(1.,0.,0.));
#364=DIRECTION('',(0.,0.,-1.));
#365=DIRECTION('',(0.,0.689655172413793,-0.724137931034483));
#366=DIRECTION('',(1.,0.,0.));
#367=DIRECTION('',(0.,0.,-1.));
#368=DIRECTION('',(0.,-0.689655172413793,-0.724137931034483));
#369=DIRECTION('',(0.,0.,-1.));
#370=DIRECTION('',(-1.,0.,0.));
#371=DIRECTION('',(0.,0.,1.));
#372=DIRECTION('',(1.,0.,0.));
#373=DIRECTION('',(0.,0.,-1.));
#374=DIRECTION('',(0.,0.689655172413793,-0.724137931034483));
#375=DIRECTION('',(0.,0.,-1.));
#376=DIRECTION('',(0.,-0.689655172413793,-0.724137931034483));
#377=DIRECTION('',(1.,0.,0.));
#378=DIRECTION('',(0.,0.,-1.));
#379=DIRECTION('',(0.,0.,1.));
#380=DIRECTION('',(1.,0.,0.));
#381=DIRECTION('',(1.,0.,0.));
#382=DIRECTION('',(0.,1.,0.));
#383=DIRECTION('',(-1.,0.,0.));
#384=DIRECTION('',(0.,0.,1.));
#385=DIRECTION('',(1.,0.,0.));
#386=DIRECTION('',(-1.,0.,0.));
#387=DIRECTION('',(0.,0.,1.));
#388=DIRECTION('',(1.,0.,0.));
#389=DIRECTION('',(0.,0.,1.));
#390=DIRECTION('',(1.,0.,0.));
#391=DIRECTION('',(-1.,0.,0.));
#392=DIRECTION('',(0.,1.,0.));
#393=DIRECTION('',(1.,0.,0.));
#394=DIRECTION('',(0.,0.,1.));
#395=DIRECTION('',(1.,0.,0.));
#396=DIRECTION('',(-1.,0.,0.));
#397=DIRECTION('',(0.,0.,1.));
#398=DIRECTION('',(1.,0.,0.));
#399=DIRECTION('',(0.,0.,-1.));
#400=DIRECTION('',(-1.,0.,0.));
#401=DIRECTION('',(0.,0.,-1.));
#402=DIRECTION('',(0.,1.,0.));
#403=DIRECTION('',(0.,0.,1.));
#404=DIRECTION('',(0.,-1.,0.));
#405=DIRECTION('',(0.,0.,-1.));
#406=DIRECTION('',(0.,-1.,0.));
#407=DIRECTION('',(0.,0.,-1.));
#408=DIRECTION('',(0.,0.,-1.));
#409=DIRECTION('',(0.,1.,0.));
#410=DIRECTION('',(0.,0.,1.));
#411=DIRECTION('',(0.,1.,0.));
#412=DIRECTION('',(0.,0.,1.));
#413=DIRECTION('',(-1.,0.,0.));
#414=DIRECTION('',(0.,0.,1.));
#415=DIRECTION('',(0.,0.,-1.));
#416=DIRECTION('',(0.,1.,0.));
#417=DIRECTION('',(0.,1.,0.));
#418=DIRECTION('',(0.,-1.,0.));
#419=DIRECTION('',(0.,0.,-1.));
#420=DIRECTION('',(0.,-1.,0.));
#421=DIRECTION('',(0.,0.,-1.));
#422=DIRECTION('',(0.,-1.,0.));
#423=DIRECTION('',(0.,0.,-1.));
#424=DIRECTION('',(0.,-1.,0.));
#425=DIRECTION('',(0.,0.,-1.));
#426=DIRECTION('',(0.,-1.,0.));
#427=DIRECTION('',(0.,0.,-1.));
#428=DIRECTION('',(0.,0.,-1.));
#429=DIRECTION('',(0.,0.,-1.));
#430=DIRECTION('',(-1.,0.,0.));
#431=DIRECTION('',(-1.,0.,0.));
#432=DIRECTION('',(0.,0.,1.));
#433=DIRECTION('',(-1.,0.,0.));
#434=DIRECTION('',(-1.,0.,0.));
#435=DIRECTION('',(0.,0.724137931034483,0.689655172413793));
#436=DIRECTION('',(0.,-0.689655172413793,0.724137931034483));
#437=DIRECTION('',(0.,0.724137931034483,-0.689655172413793));
#438=DIRECTION('',(0.,0.689655172413793,0.724137931034483));
#439=DIRECTION('',(1.,0.,0.));
#440=DIRECTION('',(0.,0.,-1.));
#441=DIRECTION('',(0.,-1.,0.));
#442=DIRECTION('',(0.,0.,-1.));
#443=DIRECTION('',(0.,-1.,0.));
#444=DIRECTION('',(0.,0.,-1.));
#445=DIRECTION('',(0.,-1.,0.));
#446=DIRECTION('',(0.,0.,-1.));
#447=DIRECTION('',(0.,1.,0.));
#448=DIRECTION('',(0.,0.,1.));
#449=DIRECTION('',(1.,0.,0.));
#450=DIRECTION('',(0.,0.,-1.));
#451=CARTESIAN_POINT('',(0.,0.,0.));
#452=CARTESIAN_POINT('',(0.,17.,17.5));
#453=CARTESIAN_POINT('',(0.,10.,0.));
#454=CARTESIAN_POINT('',(0.,10.,-4.05));
#455=CARTESIAN_POINT('',(0.,3.,17.5));
#456=CARTESIAN_POINT('',(0.,3.,17.5));
#457=CARTESIAN_POINT('',(0.,15.0689655172414,4.82758620689655));
#458=CARTESIAN_POINT('',(0.,9.99999999999999,-8.67361737988404E-16));
#459=CARTESIAN_POINT('',(0.,15.0689655172414,-4.82758620689655));
#460=CARTESIAN_POINT('',(0.,15.0689655172414,-4.82758620689655));
#461=CARTESIAN_POINT('',(0.,3.,-17.5));
#462=CARTESIAN_POINT('',(0.,3.,17.5));
#463=CARTESIAN_POINT('',(2.,3.,17.5));
#464=CARTESIAN_POINT('',(2.,10.,0.));
#465=CARTESIAN_POINT('',(2.,10.,-4.05));
#466=CARTESIAN_POINT('',(2.,3.,17.5));
#467=CARTESIAN_POINT('',(2.,3.,17.5));
#468=CARTESIAN_POINT('',(2.,15.0689655172414,4.82758620689655));
#469=CARTESIAN_POINT('',(2.,3.,17.5));
#470=CARTESIAN_POINT('',(2.,3.,-17.5));
#471=CARTESIAN_POINT('',(2.,15.0689655172414,-4.82758620689655));
#472=CARTESIAN_POINT('',(2.,15.0689655172414,-4.82758620689655));
#473=CARTESIAN_POINT('',(2.,9.99999999999999,-8.67361737988404E-16));
#474=CARTESIAN_POINT('',(3.,3.,17.5));
#475=CARTESIAN_POINT('',(3.,0.,17.5));
#476=CARTESIAN_POINT('',(3.,0.,17.5));
#477=CARTESIAN_POINT('',(13.5,0.,17.5));
#478=CARTESIAN_POINT('',(13.5,2.,17.5));
#479=CARTESIAN_POINT('',(13.5,2.,17.5));
#480=CARTESIAN_POINT('',(16.,2.,17.5));
#481=CARTESIAN_POINT('',(3.,2.,17.5));
#482=CARTESIAN_POINT('',(3.,3.,17.5));
#483=CARTESIAN_POINT('',(2.,3.,17.5));
#484=CARTESIAN_POINT('',(3.,3.,17.5));
#485=CARTESIAN_POINT('',(3.,3.,-17.5));
#486=CARTESIAN_POINT('',(16.,2.,-17.5));
#487=CARTESIAN_POINT('',(13.5,2.,-17.5));
#488=CARTESIAN_POINT('',(3.,2.,-17.5));
#489=CARTESIAN_POINT('',(13.5,3.,-17.5));
#490=CARTESIAN_POINT('',(13.5,0.,-17.5));
#491=CARTESIAN_POINT('',(3.,0.,-17.5));
#492=CARTESIAN_POINT('',(3.,0.,-17.5));
#493=CARTESIAN_POINT('',(3.,3.,-17.5));
#494=CARTESIAN_POINT('',(2.,3.,-17.5));
#495=CARTESIAN_POINT('',(3.,3.,-17.5));
#496=CARTESIAN_POINT('',(3.,3.,17.5));
#497=CARTESIAN_POINT('',(3.,0.,17.5));
#498=CARTESIAN_POINT('',(3.,0.,17.5));
#499=CARTESIAN_POINT('',(11.,0.,-12.5));
#500=CARTESIAN_POINT('',(11.,0.,-14.75));
#501=CARTESIAN_POINT('',(11.,0.,12.5));
#502=CARTESIAN_POINT('',(11.,0.,10.25));
#503=CARTESIAN_POINT('',(16.,0.,17.5));
#504=CARTESIAN_POINT('',(16.,0.,15.));
#505=CARTESIAN_POINT('',(16.,0.,-15.));
#506=CARTESIAN_POINT('',(13.5,0.,15.));
#507=CARTESIAN_POINT('',(13.5,0.,-15.));
#508=CARTESIAN_POINT('',(16.,0.,17.5));
#509=CARTESIAN_POINT('',(16.,2.,17.5));
#510=CARTESIAN_POINT('',(16.,2.,15.));
#511=CARTESIAN_POINT('',(16.,2.,-15.));
#512=CARTESIAN_POINT('',(16.,0.,15.));
#513=CARTESIAN_POINT('',(16.,0.,-15.));
#514=CARTESIAN_POINT('',(16.,2.,17.5));
#515=CARTESIAN_POINT('',(11.,2.,-12.5));
#516=CARTESIAN_POINT('',(11.,2.,-14.75));
#517=CARTESIAN_POINT('',(11.,2.,12.5));
#518=CARTESIAN_POINT('',(11.,2.,10.25));
#519=CARTESIAN_POINT('',(13.5,2.,15.));
#520=CARTESIAN_POINT('',(13.5,2.,-15.));
#521=CARTESIAN_POINT('',(3.,2.,17.5));
#522=CARTESIAN_POINT('',(3.,3.,17.5));
#523=CARTESIAN_POINT('',(2.,9.99999999999999,-8.67361737988404E-16));
#524=CARTESIAN_POINT('',(2.,15.0689655172414,4.82758620689655));
#525=CARTESIAN_POINT('',(2.,15.0689655172414,-4.82758620689655));
#526=CARTESIAN_POINT('',(2.,3.,17.5));
#527=CARTESIAN_POINT('',(2.,15.0689655172414,-4.82758620689655));
#528=CARTESIAN_POINT('',(2.,10.,0.));
#529=CARTESIAN_POINT('',(11.,0.,12.5));
#530=CARTESIAN_POINT('',(11.,0.,-12.5));
#531=CARTESIAN_POINT('',(13.5,3.,15.));
#532=CARTESIAN_POINT('',(13.5,0.,-15.));
#533=CARTESIAN_POINT('',(0.,0.,0.));
#534=MECHANICAL_DESIGN_GEOMETRIC_PRESENTATION_REPRESENTATION('',(#311),
#535);
#535=(
GEOMETRIC_REPRESENTATION_CONTEXT(3)
GLOBAL_UNCERTAINTY_ASSIGNED_CONTEXT((#537))
GLOBAL_UNIT_ASSIGNED_CONTEXT((#541,#540,#539))
REPRESENTATION_CONTEXT('8148809 HBN-S-8X1-F1A---(0)',
'TOP_LEVEL_ASSEMBLY_PART')
);
#536=(
GEOMETRIC_REPRESENTATION_CONTEXT(3)
GLOBAL_UNCERTAINTY_ASSIGNED_CONTEXT((#538))
GLOBAL_UNIT_ASSIGNED_CONTEXT((#541,#540,#539))
REPRESENTATION_CONTEXT('8148809 HBN-S-8X1-F1A---(1)','COMPONENT_PART')
);
#537=UNCERTAINTY_MEASURE_WITH_UNIT(LENGTH_MEASURE(0.005),#541,
'DISTANCE_ACCURACY_VALUE','Maximum Tolerance applied to model');
#538=UNCERTAINTY_MEASURE_WITH_UNIT(LENGTH_MEASURE(0.005),#541,
'DISTANCE_ACCURACY_VALUE','Maximum Tolerance applied to model');
#539=(
NAMED_UNIT(*)
SI_UNIT($,.STERADIAN.)
SOLID_ANGLE_UNIT()
);
#540=(
NAMED_UNIT(*)
PLANE_ANGLE_UNIT()
SI_UNIT($,.RADIAN.)
);
#541=(
LENGTH_UNIT()
NAMED_UNIT(*)
SI_UNIT(.MILLI.,.METRE.)
);
#542=PRODUCT_DEFINITION_SHAPE('','',#545);
#543=PRODUCT_DEFINITION_SHAPE('','',#546);
#544=PRODUCT_DEFINITION_SHAPE(' ','NAUO PRDDFN',#19);
#545=PRODUCT_DEFINITION('','',#549,#547);
#546=PRODUCT_DEFINITION('','',#550,#548);
#547=PRODUCT_DEFINITION_CONTEXT('',#560,'design');
#548=PRODUCT_DEFINITION_CONTEXT('',#560,'design');
#549=PRODUCT_DEFINITION_FORMATION_WITH_SPECIFIED_SOURCE('','',#553,
 .NOT_KNOWN.);
#550=PRODUCT_DEFINITION_FORMATION_WITH_SPECIFIED_SOURCE('','',#554,
 .NOT_KNOWN.);
#551=PRODUCT_RELATED_PRODUCT_CATEGORY('','',(#553));
#552=PRODUCT_RELATED_PRODUCT_CATEGORY('','',(#554));
#553=PRODUCT('8148809 HBN-S-8X1-F1A---(0)',
'8148809 HBN-S-8X1-F1A---(0)','8148809 HBN-S-8X1-F1A---(0)',(#557));
#554=PRODUCT('8148809 HBN-S-8X1-F1A---(1)',
'8148809 HBN-S-8X1-F1A---(1)','8148809 HBN-S-8X1-F1A---(1)',(#558));
#555=PRODUCT_CATEGORY('','');
#556=PRODUCT_CATEGORY('','');
#557=PRODUCT_CONTEXT('',#560,'mechanical');
#558=PRODUCT_CONTEXT('',#560,'mechanical');
#559=APPLICATION_PROTOCOL_DEFINITION('international standard',
'automotive_design',2010,#560);
#560=APPLICATION_CONTEXT(
'core data for automotive mechanical design processes');
ENDSEC;
END-ISO-10303-21;
