ISO-10303-21;
HEADER;
/* Generated by software containing ST-Developer
 * from STEP Tools, Inc. (www.steptools.com) 
 */
/* OPTION: using custom renumber hook */

FILE_DESCRIPTION(
/* description */ ('STEP AP214'),
/* implementation_level */ '2;1');

FILE_NAME(
/* name */ '8183327_ABAZ-G9-HD-10',
/* time_stamp */ '2024-07-30T14:30:59+02:00',
/* author */ ('License CC BY-ND 4.0'),
/* organization */ ('CADENAS'),
/* preprocessor_version */ 'ST-DEVELOPER v19.3',
/* originating_system */ 'PARTsolutions',
/* authorisation */ '  ');

FILE_SCHEMA (('AUTOMOTIVE_DESIGN {1 0 10303 214 3 1 1}'));
ENDSEC;

DATA;
#10=PROPERTY_DEFINITION_REPRESENTATION(#14,#12);
#11=PROPERTY_DEFINITION_REPRESENTATION(#15,#13);
#12=REPRESENTATION('',(#16),#255);
#13=REPRESENTATION('',(#17),#255);
#14=PROPERTY_DEFINITION('pmi validation property','',#262);
#15=PROPERTY_DEFINITION('pmi validation property','',#262);
#16=VALUE_REPRESENTATION_ITEM('number of annotations',COUNT_MEASURE(0.));
#17=VALUE_REPRESENTATION_ITEM('number of views',COUNT_MEASURE(0.));
#18=CONTEXT_DEPENDENT_SHAPE_REPRESENTATION(#22,#264);
#19=CONTEXT_DEPENDENT_SHAPE_REPRESENTATION(#23,#265);
#20=NEXT_ASSEMBLY_USAGE_OCCURRENCE('NAUO1','8179010 ABAZ-G9-HD-10',
'8179010 ABAZ-G9-HD-10',#266,#267,'');
#21=NEXT_ASSEMBLY_USAGE_OCCURRENCE('NAUO2','8179010 ABAZ-G9-HD-10',
'8179010 ABAZ-G9-HD-10',#266,#267,'');
#22=(
REPRESENTATION_RELATIONSHIP(' ',' ',#151,#150)
REPRESENTATION_RELATIONSHIP_WITH_TRANSFORMATION(#24)
SHAPE_REPRESENTATION_RELATIONSHIP()
);
#23=(
REPRESENTATION_RELATIONSHIP(' ',' ',#151,#150)
REPRESENTATION_RELATIONSHIP_WITH_TRANSFORMATION(#25)
SHAPE_REPRESENTATION_RELATIONSHIP()
);
#24=ITEM_DEFINED_TRANSFORMATION(' ',' ',#152,#173);
#25=ITEM_DEFINED_TRANSFORMATION(' ',' ',#152,#174);
#26=SHAPE_REPRESENTATION_RELATIONSHIP('','',#151,#27);
#27=ADVANCED_BREP_SHAPE_REPRESENTATION('',(#147),#256);
#28=CYLINDRICAL_SURFACE('',#158,2.4);
#29=CYLINDRICAL_SURFACE('',#164,3.75);
#30=CYLINDRICAL_SURFACE('',#168,4.65);
#31=CYLINDRICAL_SURFACE('',#172,3.75);
#32=PLANE('',#156);
#33=PLANE('',#160);
#34=PLANE('',#166);
#35=PLANE('',#170);
#36=ORIENTED_EDGE('',*,*,#56,.T.);
#37=ORIENTED_EDGE('',*,*,#57,.F.);
#38=ORIENTED_EDGE('',*,*,#58,.T.);
#39=ORIENTED_EDGE('',*,*,#56,.F.);
#40=ORIENTED_EDGE('',*,*,#59,.T.);
#41=ORIENTED_EDGE('',*,*,#58,.F.);
#42=ORIENTED_EDGE('',*,*,#60,.T.);
#43=ORIENTED_EDGE('',*,*,#59,.F.);
#44=ORIENTED_EDGE('',*,*,#61,.T.);
#45=ORIENTED_EDGE('',*,*,#60,.F.);
#46=ORIENTED_EDGE('',*,*,#62,.T.);
#47=ORIENTED_EDGE('',*,*,#61,.F.);
#48=ORIENTED_EDGE('',*,*,#63,.T.);
#49=ORIENTED_EDGE('',*,*,#62,.F.);
#50=ORIENTED_EDGE('',*,*,#64,.T.);
#51=ORIENTED_EDGE('',*,*,#63,.F.);
#52=ORIENTED_EDGE('',*,*,#65,.T.);
#53=ORIENTED_EDGE('',*,*,#64,.F.);
#54=ORIENTED_EDGE('',*,*,#57,.T.);
#55=ORIENTED_EDGE('',*,*,#65,.F.);
#56=EDGE_CURVE('',#66,#66,#76,.T.);
#57=EDGE_CURVE('',#67,#67,#77,.T.);
#58=EDGE_CURVE('',#68,#68,#78,.T.);
#59=EDGE_CURVE('',#69,#69,#79,.T.);
#60=EDGE_CURVE('',#70,#70,#80,.T.);
#61=EDGE_CURVE('',#71,#71,#81,.T.);
#62=EDGE_CURVE('',#72,#72,#82,.T.);
#63=EDGE_CURVE('',#73,#73,#83,.T.);
#64=EDGE_CURVE('',#74,#74,#84,.T.);
#65=EDGE_CURVE('',#75,#75,#85,.T.);
#66=VERTEX_POINT('',#224);
#67=VERTEX_POINT('',#226);
#68=VERTEX_POINT('',#229);
#69=VERTEX_POINT('',#232);
#70=VERTEX_POINT('',#235);
#71=VERTEX_POINT('',#238);
#72=VERTEX_POINT('',#241);
#73=VERTEX_POINT('',#244);
#74=VERTEX_POINT('',#247);
#75=VERTEX_POINT('',#250);
#76=CIRCLE('',#154,3.57679491924311);
#77=CIRCLE('',#155,3.75);
#78=CIRCLE('',#157,2.4);
#79=CIRCLE('',#159,2.4);
#80=CIRCLE('',#161,3.57679491924311);
#81=CIRCLE('',#163,3.75);
#82=CIRCLE('',#165,3.75);
#83=CIRCLE('',#167,4.65);
#84=CIRCLE('',#169,4.65);
#85=CIRCLE('',#171,3.75);
#86=EDGE_LOOP('',(#36));
#87=EDGE_LOOP('',(#37));
#88=EDGE_LOOP('',(#38));
#89=EDGE_LOOP('',(#39));
#90=EDGE_LOOP('',(#40));
#91=EDGE_LOOP('',(#41));
#92=EDGE_LOOP('',(#42));
#93=EDGE_LOOP('',(#43));
#94=EDGE_LOOP('',(#44));
#95=EDGE_LOOP('',(#45));
#96=EDGE_LOOP('',(#46));
#97=EDGE_LOOP('',(#47));
#98=EDGE_LOOP('',(#48));
#99=EDGE_LOOP('',(#49));
#100=EDGE_LOOP('',(#50));
#101=EDGE_LOOP('',(#51));
#102=EDGE_LOOP('',(#52));
#103=EDGE_LOOP('',(#53));
#104=EDGE_LOOP('',(#54));
#105=EDGE_LOOP('',(#55));
#106=FACE_BOUND('',#86,.T.);
#107=FACE_BOUND('',#87,.T.);
#108=FACE_BOUND('',#88,.T.);
#109=FACE_BOUND('',#89,.T.);
#110=FACE_BOUND('',#90,.T.);
#111=FACE_BOUND('',#91,.T.);
#112=FACE_BOUND('',#92,.T.);
#113=FACE_BOUND('',#93,.T.);
#114=FACE_BOUND('',#94,.T.);
#115=FACE_BOUND('',#95,.T.);
#116=FACE_BOUND('',#96,.T.);
#117=FACE_BOUND('',#97,.T.);
#118=FACE_BOUND('',#98,.T.);
#119=FACE_BOUND('',#99,.T.);
#120=FACE_BOUND('',#100,.T.);
#121=FACE_BOUND('',#101,.T.);
#122=FACE_BOUND('',#102,.T.);
#123=FACE_BOUND('',#103,.T.);
#124=FACE_BOUND('',#104,.T.);
#125=FACE_BOUND('',#105,.T.);
#126=CONICAL_SURFACE('',#153,3.75,0.523598775598301);
#127=CONICAL_SURFACE('',#162,3.57679491924311,0.523598775598296);
#128=ADVANCED_FACE('',(#106,#107),#126,.T.);
#129=ADVANCED_FACE('',(#108,#109),#32,.T.);
#130=ADVANCED_FACE('',(#110,#111),#28,.F.);
#131=ADVANCED_FACE('',(#112,#113),#33,.T.);
#132=ADVANCED_FACE('',(#114,#115),#127,.T.);
#133=ADVANCED_FACE('',(#116,#117),#29,.T.);
#134=ADVANCED_FACE('',(#118,#119),#34,.T.);
#135=ADVANCED_FACE('',(#120,#121),#30,.T.);
#136=ADVANCED_FACE('',(#122,#123),#35,.T.);
#137=ADVANCED_FACE('',(#124,#125),#31,.T.);
#138=CLOSED_SHELL('',(#128,#129,#130,#131,#132,#133,#134,#135,#136,#137));
#139=STYLED_ITEM('',(#140),#147);
#140=PRESENTATION_STYLE_ASSIGNMENT((#141));
#141=SURFACE_STYLE_USAGE(.BOTH.,#142);
#142=SURFACE_SIDE_STYLE('',(#143));
#143=SURFACE_STYLE_FILL_AREA(#144);
#144=FILL_AREA_STYLE('',(#145));
#145=FILL_AREA_STYLE_COLOUR('',#146);
#146=COLOUR_RGB('',0.689999997615814,0.689999997615814,0.689999997615814);
#147=MANIFOLD_SOLID_BREP('8179010 ABAZ-G9-HD-10',#138);
#148=SHAPE_DEFINITION_REPRESENTATION(#262,#150);
#149=SHAPE_DEFINITION_REPRESENTATION(#263,#151);
#150=SHAPE_REPRESENTATION('8183327 ABAZ-G9-HD-10',(#152,#173,#174),#255);
#151=SHAPE_REPRESENTATION('8179010 ABAZ-G9-HD-10',(#152),#256);
#152=AXIS2_PLACEMENT_3D('',#221,#175,#176);
#153=AXIS2_PLACEMENT_3D('',#222,#177,#178);
#154=AXIS2_PLACEMENT_3D('',#223,#179,#180);
#155=AXIS2_PLACEMENT_3D('',#225,#181,#182);
#156=AXIS2_PLACEMENT_3D('',#227,#183,#184);
#157=AXIS2_PLACEMENT_3D('',#228,#185,#186);
#158=AXIS2_PLACEMENT_3D('',#230,#187,#188);
#159=AXIS2_PLACEMENT_3D('',#231,#189,#190);
#160=AXIS2_PLACEMENT_3D('',#233,#191,#192);
#161=AXIS2_PLACEMENT_3D('',#234,#193,#194);
#162=AXIS2_PLACEMENT_3D('',#236,#195,#196);
#163=AXIS2_PLACEMENT_3D('',#237,#197,#198);
#164=AXIS2_PLACEMENT_3D('',#239,#199,#200);
#165=AXIS2_PLACEMENT_3D('',#240,#201,#202);
#166=AXIS2_PLACEMENT_3D('',#242,#203,#204);
#167=AXIS2_PLACEMENT_3D('',#243,#205,#206);
#168=AXIS2_PLACEMENT_3D('',#245,#207,#208);
#169=AXIS2_PLACEMENT_3D('',#246,#209,#210);
#170=AXIS2_PLACEMENT_3D('',#248,#211,#212);
#171=AXIS2_PLACEMENT_3D('',#249,#213,#214);
#172=AXIS2_PLACEMENT_3D('',#251,#215,#216);
#173=AXIS2_PLACEMENT_3D('',#252,#217,#218);
#174=AXIS2_PLACEMENT_3D('',#253,#219,#220);
#175=DIRECTION('',(0.,0.,1.));
#176=DIRECTION('',(1.,0.,0.));
#177=DIRECTION('',(0.,-2.46716227694479E-17,-1.));
#178=DIRECTION('',(0.,1.,-2.46716227694479E-17));
#179=DIRECTION('',(0.,-2.46716227694479E-17,-1.));
#180=DIRECTION('',(0.,1.,-2.46716227694479E-17));
#181=DIRECTION('',(0.,-2.46716227694479E-17,-1.));
#182=DIRECTION('',(0.,1.,-2.46716227694479E-17));
#183=DIRECTION('',(0.,2.46716227694479E-17,1.));
#184=DIRECTION('',(0.,-1.,2.46716227694479E-17));
#185=DIRECTION('',(0.,-2.46716227694479E-17,-1.));
#186=DIRECTION('',(0.,1.,-2.46716227694479E-17));
#187=DIRECTION('',(0.,-2.46716227694479E-17,-1.));
#188=DIRECTION('',(0.,1.,-2.46716227694479E-17));
#189=DIRECTION('',(0.,-2.46716227694479E-17,-1.));
#190=DIRECTION('',(0.,1.,-2.46716227694479E-17));
#191=DIRECTION('',(0.,-2.46716227694479E-17,-1.));
#192=DIRECTION('',(0.,1.,-2.46716227694479E-17));
#193=DIRECTION('',(0.,-2.46716227694479E-17,-1.));
#194=DIRECTION('',(0.,1.,-2.46716227694479E-17));
#195=DIRECTION('',(0.,2.46716227694479E-17,1.));
#196=DIRECTION('',(0.,-1.,2.46716227694479E-17));
#197=DIRECTION('',(0.,-2.46716227694479E-17,-1.));
#198=DIRECTION('',(0.,1.,-2.46716227694479E-17));
#199=DIRECTION('',(0.,-2.46716227694479E-17,-1.));
#200=DIRECTION('',(0.,1.,-2.46716227694479E-17));
#201=DIRECTION('',(0.,-2.46716227694479E-17,-1.));
#202=DIRECTION('',(0.,1.,-2.46716227694479E-17));
#203=DIRECTION('',(0.,-2.46716227694479E-17,-1.));
#204=DIRECTION('',(0.,1.,-2.46716227694479E-17));
#205=DIRECTION('',(0.,-2.46716227694479E-17,-1.));
#206=DIRECTION('',(0.,1.,-2.46716227694479E-17));
#207=DIRECTION('',(0.,-2.46716227694479E-17,-1.));
#208=DIRECTION('',(0.,1.,-2.46716227694479E-17));
#209=DIRECTION('',(0.,-2.46716227694479E-17,-1.));
#210=DIRECTION('',(0.,1.,-2.46716227694479E-17));
#211=DIRECTION('',(0.,2.46716227694479E-17,1.));
#212=DIRECTION('',(0.,-1.,2.46716227694479E-17));
#213=DIRECTION('',(0.,-2.46716227694479E-17,-1.));
#214=DIRECTION('',(0.,1.,-2.46716227694479E-17));
#215=DIRECTION('',(0.,-2.46716227694479E-17,-1.));
#216=DIRECTION('',(0.,1.,-2.46716227694479E-17));
#217=DIRECTION('',(0.,0.,1.));
#218=DIRECTION('',(1.,0.,0.));
#219=DIRECTION('',(0.,0.,1.));
#220=DIRECTION('',(1.,0.,0.));
#221=CARTESIAN_POINT('',(0.,0.,0.));
#222=CARTESIAN_POINT('',(0.,4.36687723019228E-16,8.7));
#223=CARTESIAN_POINT('',(0.,4.44089209850063E-16,9.));
#224=CARTESIAN_POINT('',(0.,3.57679491924311,9.));
#225=CARTESIAN_POINT('',(0.,4.36687723019228E-16,8.7));
#226=CARTESIAN_POINT('',(0.,3.75,8.7));
#227=CARTESIAN_POINT('',(0.,3.57679491924311,9.));
#228=CARTESIAN_POINT('',(0.,4.44089209850063E-16,9.));
#229=CARTESIAN_POINT('',(0.,2.4,9.));
#230=CARTESIAN_POINT('',(0.,0.,-9.));
#231=CARTESIAN_POINT('',(0.,1.46085352818706E-33,-9.));
#232=CARTESIAN_POINT('',(0.,2.4,-9.));
#233=CARTESIAN_POINT('',(0.,2.4,-9.));
#234=CARTESIAN_POINT('',(0.,2.1771556155741E-33,-9.));
#235=CARTESIAN_POINT('',(0.,3.57679491924311,-9.));
#236=CARTESIAN_POINT('',(0.,2.1771556155741E-33,-9.));
#237=CARTESIAN_POINT('',(0.,7.40148683083446E-18,-8.7));
#238=CARTESIAN_POINT('',(0.,3.75,-8.7));
#239=CARTESIAN_POINT('',(0.,0.,-9.));
#240=CARTESIAN_POINT('',(0.,3.70074341541719E-17,-7.5));
#241=CARTESIAN_POINT('',(0.,3.75,-7.5));
#242=CARTESIAN_POINT('',(0.,3.75,-7.5));
#243=CARTESIAN_POINT('',(0.,3.70074341541719E-17,-7.5));
#244=CARTESIAN_POINT('',(0.,4.65,-7.5));
#245=CARTESIAN_POINT('',(0.,0.,-9.));
#246=CARTESIAN_POINT('',(0.,4.07081775695891E-16,7.5));
#247=CARTESIAN_POINT('',(0.,4.65,7.5));
#248=CARTESIAN_POINT('',(0.,4.65,7.5));
#249=CARTESIAN_POINT('',(0.,4.07081775695891E-16,7.5));
#250=CARTESIAN_POINT('',(0.,3.75,7.5));
#251=CARTESIAN_POINT('',(0.,0.,-9.));
#252=CARTESIAN_POINT('',(0.,0.,0.));
#253=CARTESIAN_POINT('',(0.,0.,-30.));
#254=MECHANICAL_DESIGN_GEOMETRIC_PRESENTATION_REPRESENTATION('',(#139),
#255);
#255=(
GEOMETRIC_REPRESENTATION_CONTEXT(3)
GLOBAL_UNCERTAINTY_ASSIGNED_CONTEXT((#257))
GLOBAL_UNIT_ASSIGNED_CONTEXT((#261,#260,#259))
REPRESENTATION_CONTEXT('8183327 ABAZ-G9-HD-10',
'TOP_LEVEL_ASSEMBLY_PART')
);
#256=(
GEOMETRIC_REPRESENTATION_CONTEXT(3)
GLOBAL_UNCERTAINTY_ASSIGNED_CONTEXT((#258))
GLOBAL_UNIT_ASSIGNED_CONTEXT((#261,#260,#259))
REPRESENTATION_CONTEXT('8179010 ABAZ-G9-HD-10','COMPONENT_PART')
);
#257=UNCERTAINTY_MEASURE_WITH_UNIT(LENGTH_MEASURE(0.005),#261,
'DISTANCE_ACCURACY_VALUE','Maximum Tolerance applied to model');
#258=UNCERTAINTY_MEASURE_WITH_UNIT(LENGTH_MEASURE(0.005),#261,
'DISTANCE_ACCURACY_VALUE','Maximum Tolerance applied to model');
#259=(
NAMED_UNIT(*)
SI_UNIT($,.STERADIAN.)
SOLID_ANGLE_UNIT()
);
#260=(
NAMED_UNIT(*)
PLANE_ANGLE_UNIT()
SI_UNIT($,.RADIAN.)
);
#261=(
LENGTH_UNIT()
NAMED_UNIT(*)
SI_UNIT(.MILLI.,.METRE.)
);
#262=PRODUCT_DEFINITION_SHAPE('','',#266);
#263=PRODUCT_DEFINITION_SHAPE('','',#267);
#264=PRODUCT_DEFINITION_SHAPE(' ','NAUO PRDDFN',#20);
#265=PRODUCT_DEFINITION_SHAPE(' ','NAUO PRDDFN',#21);
#266=PRODUCT_DEFINITION('','',#270,#268);
#267=PRODUCT_DEFINITION('','',#271,#269);
#268=PRODUCT_DEFINITION_CONTEXT('',#281,'design');
#269=PRODUCT_DEFINITION_CONTEXT('',#281,'design');
#270=PRODUCT_DEFINITION_FORMATION_WITH_SPECIFIED_SOURCE('','',#274,
 .NOT_KNOWN.);
#271=PRODUCT_DEFINITION_FORMATION_WITH_SPECIFIED_SOURCE('','',#275,
 .NOT_KNOWN.);
#272=PRODUCT_RELATED_PRODUCT_CATEGORY('','',(#274));
#273=PRODUCT_RELATED_PRODUCT_CATEGORY('','',(#275));
#274=PRODUCT('8183327 ABAZ-G9-HD-10','8183327 ABAZ-G9-HD-10',
'8183327 ABAZ-G9-HD-10',(#278));
#275=PRODUCT('8179010 ABAZ-G9-HD-10','8179010 ABAZ-G9-HD-10',
'8179010 ABAZ-G9-HD-10',(#279));
#276=PRODUCT_CATEGORY('','');
#277=PRODUCT_CATEGORY('','');
#278=PRODUCT_CONTEXT('',#281,'mechanical');
#279=PRODUCT_CONTEXT('',#281,'mechanical');
#280=APPLICATION_PROTOCOL_DEFINITION('international standard',
'automotive_design',2010,#281);
#281=APPLICATION_CONTEXT(
'core data for automotive mechanical design processes');
ENDSEC;
END-ISO-10303-21;
