ISO-10303-21;
HEADER;
/* Generated by software containing ST-Developer
 * from STEP Tools, Inc. (www.steptools.com) 
 */
/* OPTION: using custom renumber hook */

FILE_DESCRIPTION(
/* description */ ('STEP AP214'),
/* implementation_level */ '2;1');

FILE_NAME(
/* name */ '8710_HSE-1_8',
/* time_stamp */ '2024-08-29T12:13:26+02:00',
/* author */ ('License CC BY-ND 4.0'),
/* organization */ ('CADENAS'),
/* preprocessor_version */ 'ST-DEVELOPER v19.3',
/* originating_system */ 'PARTsolutions',
/* authorisation */ '  ');

FILE_SCHEMA (('AUTOMOTIVE_DESIGN {1 0 10303 214 3 1 1}'));
ENDSEC;

DATA;
#10=PROPERTY_DEFINITION_REPRESENTATION(#14,#12);
#11=PROPERTY_DEFINITION_REPRESENTATION(#15,#13);
#12=REPRESENTATION('',(#16),#525);
#13=REPRESENTATION('',(#17),#525);
#14=PROPERTY_DEFINITION('pmi validation property','',#530);
#15=PROPERTY_DEFINITION('pmi validation property','',#530);
#16=VALUE_REPRESENTATION_ITEM('number of annotations',COUNT_MEASURE(0.));
#17=VALUE_REPRESENTATION_ITEM('number of views',COUNT_MEASURE(0.));
#18=SHAPE_REPRESENTATION_RELATIONSHIP('','',#317,#19);
#19=ADVANCED_BREP_SHAPE_REPRESENTATION('',(#315),#525);
#20=ELLIPSE('',#327,1.21216009898777,0.999999999999999);
#21=ELLIPSE('',#328,1.21216009898777,0.999999999999999);
#22=CYLINDRICAL_SURFACE('',#326,0.999999999999999);
#23=CYLINDRICAL_SURFACE('',#343,2.);
#24=CYLINDRICAL_SURFACE('',#344,10.);
#25=CYLINDRICAL_SURFACE('',#347,5.);
#26=CYLINDRICAL_SURFACE('',#348,2.25);
#27=CYLINDRICAL_SURFACE('',#349,2.25);
#28=CYLINDRICAL_SURFACE('',#350,4.5);
#29=CYLINDRICAL_SURFACE('',#351,4.5);
#30=CIRCLE('',#321,5.);
#31=CIRCLE('',#322,10.);
#32=CIRCLE('',#324,5.);
#33=CIRCLE('',#325,10.);
#34=CIRCLE('',#330,2.);
#35=CIRCLE('',#332,2.);
#36=CIRCLE('',#334,2.25);
#37=CIRCLE('',#335,2.25);
#38=CIRCLE('',#336,4.5);
#39=CIRCLE('',#337,4.5);
#40=CIRCLE('',#339,2.25);
#41=CIRCLE('',#340,2.25);
#42=CIRCLE('',#341,4.5);
#43=CIRCLE('',#342,4.5);
#44=ORIENTED_EDGE('',*,*,#120,.F.);
#45=ORIENTED_EDGE('',*,*,#121,.F.);
#46=ORIENTED_EDGE('',*,*,#122,.T.);
#47=ORIENTED_EDGE('',*,*,#123,.T.);
#48=ORIENTED_EDGE('',*,*,#124,.F.);
#49=ORIENTED_EDGE('',*,*,#125,.F.);
#50=ORIENTED_EDGE('',*,*,#126,.T.);
#51=ORIENTED_EDGE('',*,*,#127,.F.);
#52=ORIENTED_EDGE('',*,*,#128,.T.);
#53=ORIENTED_EDGE('',*,*,#129,.F.);
#54=ORIENTED_EDGE('',*,*,#130,.F.);
#55=ORIENTED_EDGE('',*,*,#131,.F.);
#56=ORIENTED_EDGE('',*,*,#132,.F.);
#57=ORIENTED_EDGE('',*,*,#133,.T.);
#58=ORIENTED_EDGE('',*,*,#131,.T.);
#59=ORIENTED_EDGE('',*,*,#134,.T.);
#60=ORIENTED_EDGE('',*,*,#135,.F.);
#61=ORIENTED_EDGE('',*,*,#136,.T.);
#62=ORIENTED_EDGE('',*,*,#137,.T.);
#63=ORIENTED_EDGE('',*,*,#138,.T.);
#64=ORIENTED_EDGE('',*,*,#139,.T.);
#65=ORIENTED_EDGE('',*,*,#140,.T.);
#66=ORIENTED_EDGE('',*,*,#141,.T.);
#67=ORIENTED_EDGE('',*,*,#142,.F.);
#68=ORIENTED_EDGE('',*,*,#143,.F.);
#69=ORIENTED_EDGE('',*,*,#144,.F.);
#70=ORIENTED_EDGE('',*,*,#145,.F.);
#71=ORIENTED_EDGE('',*,*,#146,.F.);
#72=ORIENTED_EDGE('',*,*,#147,.F.);
#73=ORIENTED_EDGE('',*,*,#148,.F.);
#74=ORIENTED_EDGE('',*,*,#122,.F.);
#75=ORIENTED_EDGE('',*,*,#149,.T.);
#76=ORIENTED_EDGE('',*,*,#141,.F.);
#77=ORIENTED_EDGE('',*,*,#135,.T.);
#78=ORIENTED_EDGE('',*,*,#144,.T.);
#79=ORIENTED_EDGE('',*,*,#150,.T.);
#80=ORIENTED_EDGE('',*,*,#151,.F.);
#81=ORIENTED_EDGE('',*,*,#152,.F.);
#82=ORIENTED_EDGE('',*,*,#138,.F.);
#83=ORIENTED_EDGE('',*,*,#153,.T.);
#84=ORIENTED_EDGE('',*,*,#120,.T.);
#85=ORIENTED_EDGE('',*,*,#154,.T.);
#86=ORIENTED_EDGE('',*,*,#142,.T.);
#87=ORIENTED_EDGE('',*,*,#155,.F.);
#88=ORIENTED_EDGE('',*,*,#146,.T.);
#89=ORIENTED_EDGE('',*,*,#128,.F.);
#90=ORIENTED_EDGE('',*,*,#139,.F.);
#91=ORIENTED_EDGE('',*,*,#155,.T.);
#92=ORIENTED_EDGE('',*,*,#156,.F.);
#93=ORIENTED_EDGE('',*,*,#133,.F.);
#94=ORIENTED_EDGE('',*,*,#157,.T.);
#95=ORIENTED_EDGE('',*,*,#126,.F.);
#96=ORIENTED_EDGE('',*,*,#127,.T.);
#97=ORIENTED_EDGE('',*,*,#157,.F.);
#98=ORIENTED_EDGE('',*,*,#132,.T.);
#99=ORIENTED_EDGE('',*,*,#136,.F.);
#100=ORIENTED_EDGE('',*,*,#140,.F.);
#101=ORIENTED_EDGE('',*,*,#125,.T.);
#102=ORIENTED_EDGE('',*,*,#145,.T.);
#103=ORIENTED_EDGE('',*,*,#134,.F.);
#104=ORIENTED_EDGE('',*,*,#130,.T.);
#105=ORIENTED_EDGE('',*,*,#156,.T.);
#106=ORIENTED_EDGE('',*,*,#129,.T.);
#107=ORIENTED_EDGE('',*,*,#124,.T.);
#108=ORIENTED_EDGE('',*,*,#152,.T.);
#109=ORIENTED_EDGE('',*,*,#148,.T.);
#110=ORIENTED_EDGE('',*,*,#151,.T.);
#111=ORIENTED_EDGE('',*,*,#147,.T.);
#112=ORIENTED_EDGE('',*,*,#143,.T.);
#113=ORIENTED_EDGE('',*,*,#154,.F.);
#114=ORIENTED_EDGE('',*,*,#123,.F.);
#115=ORIENTED_EDGE('',*,*,#150,.F.);
#116=ORIENTED_EDGE('',*,*,#121,.T.);
#117=ORIENTED_EDGE('',*,*,#153,.F.);
#118=ORIENTED_EDGE('',*,*,#137,.F.);
#119=ORIENTED_EDGE('',*,*,#149,.F.);
#120=EDGE_CURVE('',#158,#159,#184,.T.);
#121=EDGE_CURVE('',#160,#158,#185,.T.);
#122=EDGE_CURVE('',#160,#161,#186,.T.);
#123=EDGE_CURVE('',#161,#159,#187,.T.);
#124=EDGE_CURVE('',#162,#162,#30,.F.);
#125=EDGE_CURVE('',#163,#164,#188,.T.);
#126=EDGE_CURVE('',#163,#165,#31,.F.);
#127=EDGE_CURVE('',#166,#165,#189,.T.);
#128=EDGE_CURVE('',#166,#164,#190,.T.);
#129=EDGE_CURVE('',#167,#167,#32,.F.);
#130=EDGE_CURVE('',#168,#169,#191,.T.);
#131=EDGE_CURVE('',#170,#168,#192,.T.);
#132=EDGE_CURVE('',#171,#170,#193,.T.);
#133=EDGE_CURVE('',#171,#169,#33,.F.);
#134=EDGE_CURVE('',#168,#172,#20,.T.);
#135=EDGE_CURVE('',#173,#172,#194,.T.);
#136=EDGE_CURVE('',#173,#170,#21,.T.);
#137=EDGE_CURVE('',#174,#175,#195,.T.);
#138=EDGE_CURVE('',#175,#176,#196,.T.);
#139=EDGE_CURVE('',#176,#166,#34,.T.);
#140=EDGE_CURVE('',#166,#173,#197,.T.);
#141=EDGE_CURVE('',#173,#174,#198,.T.);
#142=EDGE_CURVE('',#177,#178,#199,.T.);
#143=EDGE_CURVE('',#179,#177,#200,.T.);
#144=EDGE_CURVE('',#172,#179,#201,.T.);
#145=EDGE_CURVE('',#164,#172,#202,.T.);
#146=EDGE_CURVE('',#178,#164,#35,.T.);
#147=EDGE_CURVE('',#180,#180,#36,.F.);
#148=EDGE_CURVE('',#181,#181,#37,.F.);
#149=EDGE_CURVE('',#160,#174,#38,.F.);
#150=EDGE_CURVE('',#179,#161,#39,.F.);
#151=EDGE_CURVE('',#182,#182,#40,.F.);
#152=EDGE_CURVE('',#183,#183,#41,.F.);
#153=EDGE_CURVE('',#175,#158,#42,.F.);
#154=EDGE_CURVE('',#159,#177,#43,.F.);
#155=EDGE_CURVE('',#176,#178,#203,.T.);
#156=EDGE_CURVE('',#169,#163,#204,.T.);
#157=EDGE_CURVE('',#171,#165,#205,.T.);
#158=VERTEX_POINT('',#445);
#159=VERTEX_POINT('',#446);
#160=VERTEX_POINT('',#448);
#161=VERTEX_POINT('',#450);
#162=VERTEX_POINT('',#454);
#163=VERTEX_POINT('',#456);
#164=VERTEX_POINT('',#457);
#165=VERTEX_POINT('',#459);
#166=VERTEX_POINT('',#461);
#167=VERTEX_POINT('',#465);
#168=VERTEX_POINT('',#467);
#169=VERTEX_POINT('',#468);
#170=VERTEX_POINT('',#470);
#171=VERTEX_POINT('',#472);
#172=VERTEX_POINT('',#476);
#173=VERTEX_POINT('',#478);
#174=VERTEX_POINT('',#482);
#175=VERTEX_POINT('',#483);
#176=VERTEX_POINT('',#485);
#177=VERTEX_POINT('',#491);
#178=VERTEX_POINT('',#492);
#179=VERTEX_POINT('',#494);
#180=VERTEX_POINT('',#500);
#181=VERTEX_POINT('',#502);
#182=VERTEX_POINT('',#507);
#183=VERTEX_POINT('',#509);
#184=LINE('',#444,#206);
#185=LINE('',#447,#207);
#186=LINE('',#449,#208);
#187=LINE('',#451,#209);
#188=LINE('',#455,#210);
#189=LINE('',#460,#211);
#190=LINE('',#462,#212);
#191=LINE('',#466,#213);
#192=LINE('',#469,#214);
#193=LINE('',#471,#215);
#194=LINE('',#477,#216);
#195=LINE('',#481,#217);
#196=LINE('',#484,#218);
#197=LINE('',#487,#219);
#198=LINE('',#488,#220);
#199=LINE('',#490,#221);
#200=LINE('',#493,#222);
#201=LINE('',#495,#223);
#202=LINE('',#496,#224);
#203=LINE('',#512,#225);
#204=LINE('',#515,#226);
#205=LINE('',#516,#227);
#206=VECTOR('',#356,1000.);
#207=VECTOR('',#357,1000.);
#208=VECTOR('',#358,1000.);
#209=VECTOR('',#359,1000.);
#210=VECTOR('',#364,1000.);
#211=VECTOR('',#367,1000.);
#212=VECTOR('',#368,1000.);
#213=VECTOR('',#373,1000.);
#214=VECTOR('',#374,1000.);
#215=VECTOR('',#375,1000.);
#216=VECTOR('',#382,1000.);
#217=VECTOR('',#387,1000.);
#218=VECTOR('',#388,1000.);
#219=VECTOR('',#391,1000.);
#220=VECTOR('',#392,1000.);
#221=VECTOR('',#395,1000.);
#222=VECTOR('',#396,1000.);
#223=VECTOR('',#397,1000.);
#224=VECTOR('',#398,1000.);
#225=VECTOR('',#421,1000.);
#226=VECTOR('',#426,1000.);
#227=VECTOR('',#427,1000.);
#228=EDGE_LOOP('',(#44,#45,#46,#47));
#229=EDGE_LOOP('',(#48));
#230=EDGE_LOOP('',(#49,#50,#51,#52));
#231=EDGE_LOOP('',(#53));
#232=EDGE_LOOP('',(#54,#55,#56,#57));
#233=EDGE_LOOP('',(#58,#59,#60,#61));
#234=EDGE_LOOP('',(#62,#63,#64,#65,#66));
#235=EDGE_LOOP('',(#67,#68,#69,#70,#71));
#236=EDGE_LOOP('',(#72));
#237=EDGE_LOOP('',(#73));
#238=EDGE_LOOP('',(#74,#75,#76,#77,#78,#79));
#239=EDGE_LOOP('',(#80));
#240=EDGE_LOOP('',(#81));
#241=EDGE_LOOP('',(#82,#83,#84,#85,#86,#87));
#242=EDGE_LOOP('',(#88,#89,#90,#91));
#243=EDGE_LOOP('',(#92,#93,#94,#95));
#244=EDGE_LOOP('',(#96,#97,#98,#99,#100));
#245=EDGE_LOOP('',(#101,#102,#103,#104,#105));
#246=EDGE_LOOP('',(#106));
#247=EDGE_LOOP('',(#107));
#248=EDGE_LOOP('',(#108));
#249=EDGE_LOOP('',(#109));
#250=EDGE_LOOP('',(#110));
#251=EDGE_LOOP('',(#111));
#252=EDGE_LOOP('',(#112,#113,#114,#115));
#253=EDGE_LOOP('',(#116,#117,#118,#119));
#254=FACE_BOUND('',#228,.T.);
#255=FACE_BOUND('',#229,.T.);
#256=FACE_BOUND('',#230,.T.);
#257=FACE_BOUND('',#231,.T.);
#258=FACE_BOUND('',#232,.T.);
#259=FACE_BOUND('',#233,.T.);
#260=FACE_BOUND('',#234,.T.);
#261=FACE_BOUND('',#235,.T.);
#262=FACE_BOUND('',#236,.T.);
#263=FACE_BOUND('',#237,.T.);
#264=FACE_BOUND('',#238,.T.);
#265=FACE_BOUND('',#239,.T.);
#266=FACE_BOUND('',#240,.T.);
#267=FACE_BOUND('',#241,.T.);
#268=FACE_BOUND('',#242,.T.);
#269=FACE_BOUND('',#243,.T.);
#270=FACE_BOUND('',#244,.T.);
#271=FACE_BOUND('',#245,.T.);
#272=FACE_BOUND('',#246,.T.);
#273=FACE_BOUND('',#247,.T.);
#274=FACE_BOUND('',#248,.T.);
#275=FACE_BOUND('',#249,.T.);
#276=FACE_BOUND('',#250,.T.);
#277=FACE_BOUND('',#251,.T.);
#278=FACE_BOUND('',#252,.T.);
#279=FACE_BOUND('',#253,.T.);
#280=PLANE('',#319);
#281=PLANE('',#320);
#282=PLANE('',#323);
#283=PLANE('',#329);
#284=PLANE('',#331);
#285=PLANE('',#333);
#286=PLANE('',#338);
#287=PLANE('',#345);
#288=PLANE('',#346);
#289=ADVANCED_FACE('',(#254),#280,.F.);
#290=ADVANCED_FACE('',(#255,#256),#281,.F.);
#291=ADVANCED_FACE('',(#257,#258),#282,.F.);
#292=ADVANCED_FACE('',(#259),#22,.F.);
#293=ADVANCED_FACE('',(#260),#283,.T.);
#294=ADVANCED_FACE('',(#261),#284,.F.);
#295=ADVANCED_FACE('',(#262,#263,#264),#285,.F.);
#296=ADVANCED_FACE('',(#265,#266,#267),#286,.F.);
#297=ADVANCED_FACE('',(#268),#23,.T.);
#298=ADVANCED_FACE('',(#269),#24,.T.);
#299=ADVANCED_FACE('',(#270),#287,.T.);
#300=ADVANCED_FACE('',(#271),#288,.T.);
#301=ADVANCED_FACE('',(#272,#273),#25,.F.);
#302=ADVANCED_FACE('',(#274,#275),#26,.F.);
#303=ADVANCED_FACE('',(#276,#277),#27,.F.);
#304=ADVANCED_FACE('',(#278),#28,.T.);
#305=ADVANCED_FACE('',(#279),#29,.T.);
#306=CLOSED_SHELL('',(#289,#290,#291,#292,#293,#294,#295,#296,#297,#298,
#299,#300,#301,#302,#303,#304,#305));
#307=STYLED_ITEM('',(#308),#315);
#308=PRESENTATION_STYLE_ASSIGNMENT((#309));
#309=SURFACE_STYLE_USAGE(.BOTH.,#310);
#310=SURFACE_SIDE_STYLE('',(#311));
#311=SURFACE_STYLE_FILL_AREA(#312);
#312=FILL_AREA_STYLE('',(#313));
#313=FILL_AREA_STYLE_COLOUR('',#314);
#314=COLOUR_RGB('',0.689999997615814,0.689999997615814,0.689999997615814);
#315=MANIFOLD_SOLID_BREP('8710 HSE-1_8',#306);
#316=SHAPE_DEFINITION_REPRESENTATION(#530,#317);
#317=SHAPE_REPRESENTATION('8710 HSE-1_8',(#318),#525);
#318=AXIS2_PLACEMENT_3D('',#442,#352,#353);
#319=AXIS2_PLACEMENT_3D('',#443,#354,#355);
#320=AXIS2_PLACEMENT_3D('',#452,#360,#361);
#321=AXIS2_PLACEMENT_3D('',#453,#362,#363);
#322=AXIS2_PLACEMENT_3D('',#458,#365,#366);
#323=AXIS2_PLACEMENT_3D('',#463,#369,#370);
#324=AXIS2_PLACEMENT_3D('',#464,#371,#372);
#325=AXIS2_PLACEMENT_3D('',#473,#376,#377);
#326=AXIS2_PLACEMENT_3D('',#474,#378,#379);
#327=AXIS2_PLACEMENT_3D('',#475,#380,#381);
#328=AXIS2_PLACEMENT_3D('',#479,#383,#384);
#329=AXIS2_PLACEMENT_3D('',#480,#385,#386);
#330=AXIS2_PLACEMENT_3D('',#486,#389,#390);
#331=AXIS2_PLACEMENT_3D('',#489,#393,#394);
#332=AXIS2_PLACEMENT_3D('',#497,#399,#400);
#333=AXIS2_PLACEMENT_3D('',#498,#401,#402);
#334=AXIS2_PLACEMENT_3D('',#499,#403,#404);
#335=AXIS2_PLACEMENT_3D('',#501,#405,#406);
#336=AXIS2_PLACEMENT_3D('',#503,#407,#408);
#337=AXIS2_PLACEMENT_3D('',#504,#409,#410);
#338=AXIS2_PLACEMENT_3D('',#505,#411,#412);
#339=AXIS2_PLACEMENT_3D('',#506,#413,#414);
#340=AXIS2_PLACEMENT_3D('',#508,#415,#416);
#341=AXIS2_PLACEMENT_3D('',#510,#417,#418);
#342=AXIS2_PLACEMENT_3D('',#511,#419,#420);
#343=AXIS2_PLACEMENT_3D('',#513,#422,#423);
#344=AXIS2_PLACEMENT_3D('',#514,#424,#425);
#345=AXIS2_PLACEMENT_3D('',#517,#428,#429);
#346=AXIS2_PLACEMENT_3D('',#518,#430,#431);
#347=AXIS2_PLACEMENT_3D('',#519,#432,#433);
#348=AXIS2_PLACEMENT_3D('',#520,#434,#435);
#349=AXIS2_PLACEMENT_3D('',#521,#436,#437);
#350=AXIS2_PLACEMENT_3D('',#522,#438,#439);
#351=AXIS2_PLACEMENT_3D('',#523,#440,#441);
#352=DIRECTION('',(0.,0.,1.));
#353=DIRECTION('',(1.,0.,0.));
#354=DIRECTION('',(0.,0.,-1.));
#355=DIRECTION('',(-1.,0.,0.));
#356=DIRECTION('',(-1.,0.,0.));
#357=DIRECTION('',(0.,-1.,0.));
#358=DIRECTION('',(-1.,0.,0.));
#359=DIRECTION('',(0.,-1.,0.));
#360=DIRECTION('',(0.,0.,1.));
#361=DIRECTION('',(1.,0.,0.));
#362=DIRECTION('',(0.,0.,1.));
#363=DIRECTION('',(1.,0.,0.));
#364=DIRECTION('',(-0.565171362566155,-0.824973533475539,0.));
#365=DIRECTION('',(0.,0.,1.));
#366=DIRECTION('',(1.,0.,0.));
#367=DIRECTION('',(-0.565171362566155,0.824973533475539,0.));
#368=DIRECTION('',(-1.,0.,0.));
#369=DIRECTION('',(0.,0.,-1.));
#370=DIRECTION('',(-1.,0.,0.));
#371=DIRECTION('',(0.,0.,-1.));
#372=DIRECTION('',(-1.,0.,0.));
#373=DIRECTION('',(0.565171362566155,0.824973533475539,0.));
#374=DIRECTION('',(-1.,0.,0.));
#375=DIRECTION('',(0.565171362566155,-0.824973533475539,0.));
#376=DIRECTION('',(0.,0.,-1.));
#377=DIRECTION('',(-1.,0.,0.));
#378=DIRECTION('',(-1.,0.,0.));
#379=DIRECTION('',(0.,0.,1.));
#380=DIRECTION('',(-0.824973533475539,0.565171362566155,0.));
#381=DIRECTION('',(-0.565171362566155,-0.824973533475539,0.));
#382=DIRECTION('',(-1.,0.,0.));
#383=DIRECTION('',(0.824973533475539,0.565171362566155,0.));
#384=DIRECTION('',(-0.565171362566155,0.824973533475539,0.));
#385=DIRECTION('',(1.,0.,0.));
#386=DIRECTION('',(0.,0.,-1.));
#387=DIRECTION('',(0.,-1.,0.));
#388=DIRECTION('',(0.,0.,-1.));
#389=DIRECTION('',(1.,0.,0.));
#390=DIRECTION('',(0.,0.,-1.));
#391=DIRECTION('',(0.,0.,1.));
#392=DIRECTION('',(0.,0.,1.));
#393=DIRECTION('',(1.,0.,0.));
#394=DIRECTION('',(0.,0.,-1.));
#395=DIRECTION('',(0.,0.,-1.));
#396=DIRECTION('',(0.,-1.,0.));
#397=DIRECTION('',(0.,0.,1.));
#398=DIRECTION('',(0.,0.,1.));
#399=DIRECTION('',(1.,0.,0.));
#400=DIRECTION('',(0.,0.,-1.));
#401=DIRECTION('',(0.,-1.,0.));
#402=DIRECTION('',(0.,0.,-1.));
#403=DIRECTION('',(0.,-1.,0.));
#404=DIRECTION('',(0.,0.,-1.));
#405=DIRECTION('',(0.,-1.,0.));
#406=DIRECTION('',(0.,0.,-1.));
#407=DIRECTION('',(0.,-1.,0.));
#408=DIRECTION('',(0.,0.,-1.));
#409=DIRECTION('',(0.,-1.,0.));
#410=DIRECTION('',(0.,0.,-1.));
#411=DIRECTION('',(0.,1.,0.));
#412=DIRECTION('',(0.,0.,1.));
#413=DIRECTION('',(0.,1.,0.));
#414=DIRECTION('',(0.,0.,1.));
#415=DIRECTION('',(0.,1.,0.));
#416=DIRECTION('',(0.,0.,1.));
#417=DIRECTION('',(0.,1.,0.));
#418=DIRECTION('',(0.,0.,1.));
#419=DIRECTION('',(0.,1.,0.));
#420=DIRECTION('',(0.,0.,1.));
#421=DIRECTION('',(-1.,0.,0.));
#422=DIRECTION('',(-1.,0.,0.));
#423=DIRECTION('',(0.,0.,1.));
#424=DIRECTION('',(0.,0.,-1.));
#425=DIRECTION('',(-1.,0.,0.));
#426=DIRECTION('',(0.,0.,-1.));
#427=DIRECTION('',(0.,0.,-1.));
#428=DIRECTION('',(0.824973533475539,0.565171362566155,0.));
#429=DIRECTION('',(-0.565171362566155,0.824973533475539,0.));
#430=DIRECTION('',(-0.824973533475539,0.565171362566155,0.));
#431=DIRECTION('',(-0.565171362566155,-0.824973533475539,0.));
#432=DIRECTION('',(0.,0.,-1.));
#433=DIRECTION('',(-1.,0.,0.));
#434=DIRECTION('',(0.,-1.,0.));
#435=DIRECTION('',(0.,0.,-1.));
#436=DIRECTION('',(0.,-1.,0.));
#437=DIRECTION('',(0.,0.,-1.));
#438=DIRECTION('',(0.,-1.,0.));
#439=DIRECTION('',(0.,0.,-1.));
#440=DIRECTION('',(0.,-1.,0.));
#441=DIRECTION('',(0.,0.,-1.));
#442=CARTESIAN_POINT('',(0.,0.,0.));
#443=CARTESIAN_POINT('',(20.,2.,13.));
#444=CARTESIAN_POINT('',(20.,0.,13.));
#445=CARTESIAN_POINT('',(15.5,0.,13.));
#446=CARTESIAN_POINT('',(-15.5,0.,13.));
#447=CARTESIAN_POINT('',(15.5,3.,13.));
#448=CARTESIAN_POINT('',(15.5,2.,13.));
#449=CARTESIAN_POINT('',(20.,2.,13.));
#450=CARTESIAN_POINT('',(-15.5,2.,13.));
#451=CARTESIAN_POINT('',(-15.5,3.,13.));
#452=CARTESIAN_POINT('',(20.,2.,0.));
#453=CARTESIAN_POINT('',(0.,13.5,0.));
#454=CARTESIAN_POINT('',(5.,13.5,0.));
#455=CARTESIAN_POINT('',(-7.22325323740465,20.6500566398154,0.));
#456=CARTESIAN_POINT('',(-8.24973533475539,19.1517136256616,0.));
#457=CARTESIAN_POINT('',(-20.,2.,4.33680868994202E-16));
#458=CARTESIAN_POINT('',(-8.67361737988404E-16,13.5,0.));
#459=CARTESIAN_POINT('',(8.24973533475539,19.1517136256615,0.));
#460=CARTESIAN_POINT('',(20.,2.,0.));
#461=CARTESIAN_POINT('',(20.,2.,0.));
#462=CARTESIAN_POINT('',(20.,2.,4.33680868994202E-16));
#463=CARTESIAN_POINT('',(20.,25.5,2.));
#464=CARTESIAN_POINT('',(0.,13.5,2.));
#465=CARTESIAN_POINT('',(-5.,13.5,2.));
#466=CARTESIAN_POINT('',(3.73365503848691,36.6437179167906,2.));
#467=CARTESIAN_POINT('',(-19.3149218252068,3.,2.));
#468=CARTESIAN_POINT('',(-8.24973533475539,19.1517136256616,2.));
#469=CARTESIAN_POINT('',(20.,3.,2.));
#470=CARTESIAN_POINT('',(19.3149218252068,3.,2.));
#471=CARTESIAN_POINT('',(9.04309172410844,17.9936612769752,2.));
#472=CARTESIAN_POINT('',(8.24973533475539,19.1517136256615,2.));
#473=CARTESIAN_POINT('',(-8.67361737988404E-16,13.5,2.));
#474=CARTESIAN_POINT('',(20.,3.,3.));
#475=CARTESIAN_POINT('',(-19.3149218252068,3.,3.));
#476=CARTESIAN_POINT('',(-20.,2.,3.));
#477=CARTESIAN_POINT('',(20.,2.,3.));
#478=CARTESIAN_POINT('',(20.,2.,3.));
#479=CARTESIAN_POINT('',(19.3149218252068,3.,3.));
#480=CARTESIAN_POINT('',(20.,2.,2.));
#481=CARTESIAN_POINT('',(20.,3.,8.5));
#482=CARTESIAN_POINT('',(20.,2.,8.5));
#483=CARTESIAN_POINT('',(20.,0.,8.5));
#484=CARTESIAN_POINT('',(20.,0.,13.));
#485=CARTESIAN_POINT('',(20.,0.,2.));
#486=CARTESIAN_POINT('',(20.,2.,2.));
#487=CARTESIAN_POINT('',(20.,2.,2.));
#488=CARTESIAN_POINT('',(20.,2.,3.));
#489=CARTESIAN_POINT('',(-20.,2.,2.));
#490=CARTESIAN_POINT('',(-20.,0.,13.));
#491=CARTESIAN_POINT('',(-20.,0.,8.5));
#492=CARTESIAN_POINT('',(-20.,0.,2.));
#493=CARTESIAN_POINT('',(-20.,3.,8.5));
#494=CARTESIAN_POINT('',(-20.,2.,8.5));
#495=CARTESIAN_POINT('',(-20.,2.,3.));
#496=CARTESIAN_POINT('',(-20.,2.,2.));
#497=CARTESIAN_POINT('',(-20.,2.,2.));
#498=CARTESIAN_POINT('',(20.,2.,3.));
#499=CARTESIAN_POINT('',(-15.,2.,8.));
#500=CARTESIAN_POINT('',(-15.,2.,5.75));
#501=CARTESIAN_POINT('',(15.,2.,8.));
#502=CARTESIAN_POINT('',(15.,2.,5.75));
#503=CARTESIAN_POINT('',(15.5,2.,8.5));
#504=CARTESIAN_POINT('',(-15.5,2.,8.50000000000001));
#505=CARTESIAN_POINT('',(20.,0.,13.));
#506=CARTESIAN_POINT('',(-15.,0.,8.));
#507=CARTESIAN_POINT('',(-15.,0.,10.25));
#508=CARTESIAN_POINT('',(15.,0.,8.));
#509=CARTESIAN_POINT('',(15.,0.,10.25));
#510=CARTESIAN_POINT('',(15.5,0.,8.5));
#511=CARTESIAN_POINT('',(-15.5,0.,8.50000000000001));
#512=CARTESIAN_POINT('',(20.,0.,2.));
#513=CARTESIAN_POINT('',(20.,2.,2.));
#514=CARTESIAN_POINT('',(-8.67361737988404E-16,13.5,20.));
#515=CARTESIAN_POINT('',(-8.24973533475539,19.1517136256616,20.));
#516=CARTESIAN_POINT('',(8.24973533475539,19.1517136256615,20.));
#517=CARTESIAN_POINT('',(8.24973533475539,19.1517136256615,20.));
#518=CARTESIAN_POINT('',(-20.,2.,20.));
#519=CARTESIAN_POINT('',(0.,13.5,3.));
#520=CARTESIAN_POINT('',(15.,3.,8.));
#521=CARTESIAN_POINT('',(-15.,3.,8.));
#522=CARTESIAN_POINT('',(-15.5,3.,8.50000000000001));
#523=CARTESIAN_POINT('',(15.5,3.,8.5));
#524=MECHANICAL_DESIGN_GEOMETRIC_PRESENTATION_REPRESENTATION('',(#307),
#525);
#525=(
GEOMETRIC_REPRESENTATION_CONTEXT(3)
GLOBAL_UNCERTAINTY_ASSIGNED_CONTEXT((#526))
GLOBAL_UNIT_ASSIGNED_CONTEXT((#529,#528,#527))
REPRESENTATION_CONTEXT('8710 HSE-1_8','TOP_LEVEL_ASSEMBLY_PART')
);
#526=UNCERTAINTY_MEASURE_WITH_UNIT(LENGTH_MEASURE(0.005),#529,
'DISTANCE_ACCURACY_VALUE','Maximum Tolerance applied to model');
#527=(
NAMED_UNIT(*)
SI_UNIT($,.STERADIAN.)
SOLID_ANGLE_UNIT()
);
#528=(
NAMED_UNIT(*)
PLANE_ANGLE_UNIT()
SI_UNIT($,.RADIAN.)
);
#529=(
LENGTH_UNIT()
NAMED_UNIT(*)
SI_UNIT(.MILLI.,.METRE.)
);
#530=PRODUCT_DEFINITION_SHAPE('','',#531);
#531=PRODUCT_DEFINITION('','',#533,#532);
#532=PRODUCT_DEFINITION_CONTEXT('',#539,'design');
#533=PRODUCT_DEFINITION_FORMATION_WITH_SPECIFIED_SOURCE('','',#535,
 .NOT_KNOWN.);
#534=PRODUCT_RELATED_PRODUCT_CATEGORY('','',(#535));
#535=PRODUCT('8710 HSE-1_8','8710 HSE-1_8','8710 HSE-1_8',(#537));
#536=PRODUCT_CATEGORY('','');
#537=PRODUCT_CONTEXT('',#539,'mechanical');
#538=APPLICATION_PROTOCOL_DEFINITION('international standard',
'automotive_design',2010,#539);
#539=APPLICATION_CONTEXT(
'core data for automotive mechanical design processes');
ENDSEC;
END-ISO-10303-21;
