ISO-10303-21;
HEADER;
/* Generated by software containing ST-Developer
 * from STEP Tools, Inc. (www.steptools.com) 
 */
/* OPTION: using custom renumber hook */

FILE_DESCRIPTION(
/* description */ ('STEP AP214'),
/* implementation_level */ '2;1');

FILE_NAME(
/* name */ '9236_GBS-32',
/* time_stamp */ '2024-08-28T20:14:37+02:00',
/* author */ ('License CC BY-ND 4.0'),
/* organization */ ('CADENAS'),
/* preprocessor_version */ 'ST-DEVELOPER v19.3',
/* originating_system */ 'PARTsolutions',
/* authorisation */ '  ');

FILE_SCHEMA (('AUTOMOTIVE_DESIGN {1 0 10303 214 3 1 1}'));
ENDSEC;

DATA;
#10=PROPERTY_DEFINITION_REPRESENTATION(#14,#12);
#11=PROPERTY_DEFINITION_REPRESENTATION(#15,#13);
#12=REPRESENTATION('',(#16),#487);
#13=REPRESENTATION('',(#17),#487);
#14=PROPERTY_DEFINITION('pmi validation property','',#492);
#15=PROPERTY_DEFINITION('pmi validation property','',#492);
#16=VALUE_REPRESENTATION_ITEM('number of annotations',COUNT_MEASURE(0.));
#17=VALUE_REPRESENTATION_ITEM('number of views',COUNT_MEASURE(0.));
#18=SHAPE_REPRESENTATION_RELATIONSHIP('','',#283,#19);
#19=ADVANCED_BREP_SHAPE_REPRESENTATION('',(#281),#487);
#20=VERTEX_LOOP('',#175);
#21=LINE('',#458,#33);
#22=LINE('',#460,#34);
#23=LINE('',#462,#35);
#24=LINE('',#464,#36);
#25=LINE('',#466,#37);
#26=LINE('',#468,#38);
#27=LINE('',#470,#39);
#28=LINE('',#472,#40);
#29=LINE('',#474,#41);
#30=LINE('',#476,#42);
#31=LINE('',#478,#43);
#32=LINE('',#480,#44);
#33=VECTOR('',#361,1000.);
#34=VECTOR('',#362,1000.);
#35=VECTOR('',#363,1000.);
#36=VECTOR('',#366,1000.);
#37=VECTOR('',#367,1000.);
#38=VECTOR('',#370,1000.);
#39=VECTOR('',#371,1000.);
#40=VECTOR('',#374,1000.);
#41=VECTOR('',#375,1000.);
#42=VECTOR('',#378,1000.);
#43=VECTOR('',#379,1000.);
#44=VECTOR('',#382,1000.);
#45=TOROIDAL_SURFACE('',#295,3.9865,0.6);
#46=CYLINDRICAL_SURFACE('',#291,5.);
#47=CYLINDRICAL_SURFACE('',#297,3.3865);
#48=CYLINDRICAL_SURFACE('',#301,4.);
#49=PLANE('',#287);
#50=PLANE('',#293);
#51=PLANE('',#305);
#52=PLANE('',#306);
#53=PLANE('',#307);
#54=PLANE('',#308);
#55=PLANE('',#309);
#56=PLANE('',#310);
#57=PLANE('',#311);
#58=PLANE('',#312);
#59=B_SPLINE_CURVE_WITH_KNOTS('',3,(#393,#394,#395,#396,#397),
 .UNSPECIFIED.,.F.,.F.,(4,1,4),(2.38074472379152E-7,0.00145797079104607,
0.00291570350761976),.UNSPECIFIED.);
#60=B_SPLINE_CURVE_WITH_KNOTS('',3,(#400,#401,#402,#403,#404),
 .UNSPECIFIED.,.F.,.F.,(4,1,4),(0.00363678212824772,0.00510647854753979,
0.00657617496683186),.UNSPECIFIED.);
#61=B_SPLINE_CURVE_WITH_KNOTS('',3,(#406,#407,#408,#409,#410),
 .UNSPECIFIED.,.F.,.F.,(4,1,4),(2.38074472379758E-7,0.00145797079104607,
0.00291570350761976),.UNSPECIFIED.);
#62=B_SPLINE_CURVE_WITH_KNOTS('',3,(#412,#413,#414,#415,#416),
 .UNSPECIFIED.,.F.,.F.,(4,1,4),(2.38074472379222E-7,0.00145797079104607,
0.00291570350761976),.UNSPECIFIED.);
#63=B_SPLINE_CURVE_WITH_KNOTS('',3,(#418,#419,#420,#421,#422),
 .UNSPECIFIED.,.F.,.F.,(4,1,4),(0.00363678212824772,0.00510647854753979,
0.00657617496683186),.UNSPECIFIED.);
#64=B_SPLINE_CURVE_WITH_KNOTS('',3,(#424,#425,#426,#427,#428),
 .UNSPECIFIED.,.F.,.F.,(4,1,4),(2.38074472379758E-7,0.00145797079104607,
0.00291570350761976),.UNSPECIFIED.);
#65=ORIENTED_EDGE('',*,*,#123,.F.);
#66=ORIENTED_EDGE('',*,*,#124,.T.);
#67=ORIENTED_EDGE('',*,*,#125,.T.);
#68=ORIENTED_EDGE('',*,*,#126,.T.);
#69=ORIENTED_EDGE('',*,*,#127,.T.);
#70=ORIENTED_EDGE('',*,*,#128,.T.);
#71=ORIENTED_EDGE('',*,*,#129,.T.);
#72=ORIENTED_EDGE('',*,*,#130,.F.);
#73=ORIENTED_EDGE('',*,*,#123,.T.);
#74=ORIENTED_EDGE('',*,*,#131,.F.);
#75=ORIENTED_EDGE('',*,*,#130,.T.);
#76=ORIENTED_EDGE('',*,*,#132,.F.);
#77=ORIENTED_EDGE('',*,*,#131,.T.);
#78=ORIENTED_EDGE('',*,*,#133,.F.);
#79=ORIENTED_EDGE('',*,*,#132,.T.);
#80=ORIENTED_EDGE('',*,*,#134,.F.);
#81=ORIENTED_EDGE('',*,*,#133,.T.);
#82=ORIENTED_EDGE('',*,*,#135,.F.);
#83=ORIENTED_EDGE('',*,*,#134,.T.);
#84=ORIENTED_EDGE('',*,*,#136,.F.);
#85=ORIENTED_EDGE('',*,*,#135,.T.);
#86=ORIENTED_EDGE('',*,*,#137,.F.);
#87=ORIENTED_EDGE('',*,*,#136,.T.);
#88=ORIENTED_EDGE('',*,*,#138,.F.);
#89=ORIENTED_EDGE('',*,*,#137,.T.);
#90=ORIENTED_EDGE('',*,*,#138,.T.);
#91=ORIENTED_EDGE('',*,*,#139,.F.);
#92=ORIENTED_EDGE('',*,*,#140,.F.);
#93=ORIENTED_EDGE('',*,*,#141,.T.);
#94=ORIENTED_EDGE('',*,*,#125,.F.);
#95=ORIENTED_EDGE('',*,*,#142,.F.);
#96=ORIENTED_EDGE('',*,*,#143,.F.);
#97=ORIENTED_EDGE('',*,*,#139,.T.);
#98=ORIENTED_EDGE('',*,*,#124,.F.);
#99=ORIENTED_EDGE('',*,*,#144,.F.);
#100=ORIENTED_EDGE('',*,*,#145,.F.);
#101=ORIENTED_EDGE('',*,*,#142,.T.);
#102=ORIENTED_EDGE('',*,*,#129,.F.);
#103=ORIENTED_EDGE('',*,*,#146,.F.);
#104=ORIENTED_EDGE('',*,*,#147,.F.);
#105=ORIENTED_EDGE('',*,*,#144,.T.);
#106=ORIENTED_EDGE('',*,*,#128,.F.);
#107=ORIENTED_EDGE('',*,*,#148,.F.);
#108=ORIENTED_EDGE('',*,*,#149,.F.);
#109=ORIENTED_EDGE('',*,*,#146,.T.);
#110=ORIENTED_EDGE('',*,*,#127,.F.);
#111=ORIENTED_EDGE('',*,*,#141,.F.);
#112=ORIENTED_EDGE('',*,*,#150,.F.);
#113=ORIENTED_EDGE('',*,*,#148,.T.);
#114=ORIENTED_EDGE('',*,*,#126,.F.);
#115=ORIENTED_EDGE('',*,*,#151,.T.);
#116=ORIENTED_EDGE('',*,*,#140,.T.);
#117=ORIENTED_EDGE('',*,*,#143,.T.);
#118=ORIENTED_EDGE('',*,*,#145,.T.);
#119=ORIENTED_EDGE('',*,*,#147,.T.);
#120=ORIENTED_EDGE('',*,*,#149,.T.);
#121=ORIENTED_EDGE('',*,*,#150,.T.);
#122=ORIENTED_EDGE('',*,*,#151,.F.);
#123=EDGE_CURVE('',#152,#152,#176,.T.);
#124=EDGE_CURVE('',#153,#154,#59,.T.);
#125=EDGE_CURVE('',#154,#155,#60,.T.);
#126=EDGE_CURVE('',#155,#156,#61,.T.);
#127=EDGE_CURVE('',#156,#157,#62,.T.);
#128=EDGE_CURVE('',#157,#158,#63,.T.);
#129=EDGE_CURVE('',#158,#153,#64,.T.);
#130=EDGE_CURVE('',#159,#159,#177,.T.);
#131=EDGE_CURVE('',#160,#160,#178,.T.);
#132=EDGE_CURVE('',#161,#161,#179,.T.);
#133=EDGE_CURVE('',#162,#162,#180,.T.);
#134=EDGE_CURVE('',#163,#163,#181,.T.);
#135=EDGE_CURVE('',#164,#164,#182,.T.);
#136=EDGE_CURVE('',#165,#165,#183,.T.);
#137=EDGE_CURVE('',#166,#166,#184,.T.);
#138=EDGE_CURVE('',#167,#167,#185,.T.);
#139=EDGE_CURVE('',#168,#154,#21,.T.);
#140=EDGE_CURVE('',#169,#168,#22,.T.);
#141=EDGE_CURVE('',#169,#155,#23,.T.);
#142=EDGE_CURVE('',#170,#153,#24,.T.);
#143=EDGE_CURVE('',#168,#170,#25,.T.);
#144=EDGE_CURVE('',#171,#158,#26,.T.);
#145=EDGE_CURVE('',#170,#171,#27,.T.);
#146=EDGE_CURVE('',#172,#157,#28,.T.);
#147=EDGE_CURVE('',#171,#172,#29,.T.);
#148=EDGE_CURVE('',#173,#156,#30,.T.);
#149=EDGE_CURVE('',#172,#173,#31,.T.);
#150=EDGE_CURVE('',#173,#169,#32,.T.);
#151=EDGE_CURVE('',#174,#174,#186,.T.);
#152=VERTEX_POINT('',#392);
#153=VERTEX_POINT('',#398);
#154=VERTEX_POINT('',#399);
#155=VERTEX_POINT('',#405);
#156=VERTEX_POINT('',#411);
#157=VERTEX_POINT('',#417);
#158=VERTEX_POINT('',#423);
#159=VERTEX_POINT('',#431);
#160=VERTEX_POINT('',#434);
#161=VERTEX_POINT('',#437);
#162=VERTEX_POINT('',#440);
#163=VERTEX_POINT('',#443);
#164=VERTEX_POINT('',#446);
#165=VERTEX_POINT('',#449);
#166=VERTEX_POINT('',#452);
#167=VERTEX_POINT('',#455);
#168=VERTEX_POINT('',#459);
#169=VERTEX_POINT('',#461);
#170=VERTEX_POINT('',#465);
#171=VERTEX_POINT('',#469);
#172=VERTEX_POINT('',#473);
#173=VERTEX_POINT('',#477);
#174=VERTEX_POINT('',#483);
#175=VERTEX_POINT('',#485);
#176=CIRCLE('',#286,2.8875);
#177=CIRCLE('',#288,4.);
#178=CIRCLE('',#290,5.);
#179=CIRCLE('',#292,5.);
#180=CIRCLE('',#294,3.9865);
#181=CIRCLE('',#296,3.3865);
#182=CIRCLE('',#298,3.3865);
#183=CIRCLE('',#300,4.);
#184=CIRCLE('',#302,4.);
#185=CIRCLE('',#304,3.3865);
#186=CIRCLE('',#313,2.8875);
#187=EDGE_LOOP('',(#65));
#188=EDGE_LOOP('',(#66,#67,#68,#69,#70,#71));
#189=EDGE_LOOP('',(#72));
#190=EDGE_LOOP('',(#73));
#191=EDGE_LOOP('',(#74));
#192=EDGE_LOOP('',(#75));
#193=EDGE_LOOP('',(#76));
#194=EDGE_LOOP('',(#77));
#195=EDGE_LOOP('',(#78));
#196=EDGE_LOOP('',(#79));
#197=EDGE_LOOP('',(#80));
#198=EDGE_LOOP('',(#81));
#199=EDGE_LOOP('',(#82));
#200=EDGE_LOOP('',(#83));
#201=EDGE_LOOP('',(#84));
#202=EDGE_LOOP('',(#85));
#203=EDGE_LOOP('',(#86));
#204=EDGE_LOOP('',(#87));
#205=EDGE_LOOP('',(#88));
#206=EDGE_LOOP('',(#89));
#207=EDGE_LOOP('',(#90));
#208=EDGE_LOOP('',(#91,#92,#93,#94));
#209=EDGE_LOOP('',(#95,#96,#97,#98));
#210=EDGE_LOOP('',(#99,#100,#101,#102));
#211=EDGE_LOOP('',(#103,#104,#105,#106));
#212=EDGE_LOOP('',(#107,#108,#109,#110));
#213=EDGE_LOOP('',(#111,#112,#113,#114));
#214=EDGE_LOOP('',(#115));
#215=EDGE_LOOP('',(#116,#117,#118,#119,#120,#121));
#216=EDGE_LOOP('',(#122));
#217=FACE_BOUND('',#187,.T.);
#218=FACE_BOUND('',#188,.T.);
#219=FACE_BOUND('',#189,.T.);
#220=FACE_BOUND('',#190,.T.);
#221=FACE_BOUND('',#191,.T.);
#222=FACE_BOUND('',#192,.T.);
#223=FACE_BOUND('',#193,.T.);
#224=FACE_BOUND('',#194,.T.);
#225=FACE_BOUND('',#195,.T.);
#226=FACE_BOUND('',#196,.T.);
#227=FACE_BOUND('',#197,.T.);
#228=FACE_BOUND('',#198,.T.);
#229=FACE_BOUND('',#199,.T.);
#230=FACE_BOUND('',#200,.T.);
#231=FACE_BOUND('',#201,.T.);
#232=FACE_BOUND('',#202,.T.);
#233=FACE_BOUND('',#203,.T.);
#234=FACE_BOUND('',#204,.T.);
#235=FACE_BOUND('',#205,.T.);
#236=FACE_BOUND('',#206,.T.);
#237=FACE_BOUND('',#207,.T.);
#238=FACE_BOUND('',#208,.T.);
#239=FACE_BOUND('',#209,.T.);
#240=FACE_BOUND('',#210,.T.);
#241=FACE_BOUND('',#211,.T.);
#242=FACE_BOUND('',#212,.T.);
#243=FACE_BOUND('',#213,.T.);
#244=FACE_BOUND('',#214,.T.);
#245=FACE_BOUND('',#215,.T.);
#246=FACE_BOUND('',#20,.T.);
#247=FACE_BOUND('',#216,.T.);
#248=CONICAL_SURFACE('',#285,6.50521303491303E-16,1.0471975511966);
#249=CONICAL_SURFACE('',#289,4.,0.785398163397449);
#250=CONICAL_SURFACE('',#299,3.3865,0.785398163397449);
#251=CONICAL_SURFACE('',#303,4.,0.785398163397448);
#252=CONICAL_SURFACE('',#314,2.8875,1.0471975511966);
#253=ADVANCED_FACE('',(#217,#218),#248,.F.);
#254=ADVANCED_FACE('',(#219,#220),#49,.F.);
#255=ADVANCED_FACE('',(#221,#222),#249,.T.);
#256=ADVANCED_FACE('',(#223,#224),#46,.T.);
#257=ADVANCED_FACE('',(#225,#226),#50,.F.);
#258=ADVANCED_FACE('',(#227,#228),#45,.F.);
#259=ADVANCED_FACE('',(#229,#230),#47,.T.);
#260=ADVANCED_FACE('',(#231,#232),#250,.T.);
#261=ADVANCED_FACE('',(#233,#234),#48,.T.);
#262=ADVANCED_FACE('',(#235,#236),#251,.T.);
#263=ADVANCED_FACE('',(#237),#51,.F.);
#264=ADVANCED_FACE('',(#238),#52,.F.);
#265=ADVANCED_FACE('',(#239),#53,.F.);
#266=ADVANCED_FACE('',(#240),#54,.F.);
#267=ADVANCED_FACE('',(#241),#55,.F.);
#268=ADVANCED_FACE('',(#242),#56,.F.);
#269=ADVANCED_FACE('',(#243),#57,.F.);
#270=ADVANCED_FACE('',(#244,#245),#58,.T.);
#271=ADVANCED_FACE('',(#246,#247),#252,.F.);
#272=CLOSED_SHELL('',(#253,#254,#255,#256,#257,#258,#259,#260,#261,#262,
#263,#264,#265,#266,#267,#268,#269,#270,#271));
#273=STYLED_ITEM('',(#274),#281);
#274=PRESENTATION_STYLE_ASSIGNMENT((#275));
#275=SURFACE_STYLE_USAGE(.BOTH.,#276);
#276=SURFACE_SIDE_STYLE('',(#277));
#277=SURFACE_STYLE_FILL_AREA(#278);
#278=FILL_AREA_STYLE('',(#279));
#279=FILL_AREA_STYLE_COLOUR('',#280);
#280=COLOUR_RGB('',0.689999997615814,0.689999997615814,0.689999997615814);
#281=MANIFOLD_SOLID_BREP('9236 GBS-32',#272);
#282=SHAPE_DEFINITION_REPRESENTATION(#492,#283);
#283=SHAPE_REPRESENTATION('9236 GBS-32',(#284),#487);
#284=AXIS2_PLACEMENT_3D('',#389,#315,#316);
#285=AXIS2_PLACEMENT_3D('',#390,#317,#318);
#286=AXIS2_PLACEMENT_3D('',#391,#319,#320);
#287=AXIS2_PLACEMENT_3D('',#429,#321,#322);
#288=AXIS2_PLACEMENT_3D('',#430,#323,#324);
#289=AXIS2_PLACEMENT_3D('',#432,#325,#326);
#290=AXIS2_PLACEMENT_3D('',#433,#327,#328);
#291=AXIS2_PLACEMENT_3D('',#435,#329,#330);
#292=AXIS2_PLACEMENT_3D('',#436,#331,#332);
#293=AXIS2_PLACEMENT_3D('',#438,#333,#334);
#294=AXIS2_PLACEMENT_3D('',#439,#335,#336);
#295=AXIS2_PLACEMENT_3D('',#441,#337,#338);
#296=AXIS2_PLACEMENT_3D('',#442,#339,#340);
#297=AXIS2_PLACEMENT_3D('',#444,#341,#342);
#298=AXIS2_PLACEMENT_3D('',#445,#343,#344);
#299=AXIS2_PLACEMENT_3D('',#447,#345,#346);
#300=AXIS2_PLACEMENT_3D('',#448,#347,#348);
#301=AXIS2_PLACEMENT_3D('',#450,#349,#350);
#302=AXIS2_PLACEMENT_3D('',#451,#351,#352);
#303=AXIS2_PLACEMENT_3D('',#453,#353,#354);
#304=AXIS2_PLACEMENT_3D('',#454,#355,#356);
#305=AXIS2_PLACEMENT_3D('',#456,#357,#358);
#306=AXIS2_PLACEMENT_3D('',#457,#359,#360);
#307=AXIS2_PLACEMENT_3D('',#463,#364,#365);
#308=AXIS2_PLACEMENT_3D('',#467,#368,#369);
#309=AXIS2_PLACEMENT_3D('',#471,#372,#373);
#310=AXIS2_PLACEMENT_3D('',#475,#376,#377);
#311=AXIS2_PLACEMENT_3D('',#479,#380,#381);
#312=AXIS2_PLACEMENT_3D('',#481,#383,#384);
#313=AXIS2_PLACEMENT_3D('',#482,#385,#386);
#314=AXIS2_PLACEMENT_3D('',#484,#387,#388);
#315=DIRECTION('',(0.,0.,1.));
#316=DIRECTION('',(1.,0.,0.));
#317=DIRECTION('',(0.,0.,1.));
#318=DIRECTION('',(1.,0.,0.));
#319=DIRECTION('',(0.,0.,-1.));
#320=DIRECTION('',(-1.,0.,0.));
#321=DIRECTION('',(0.,0.,-1.));
#322=DIRECTION('',(-1.,0.,0.));
#323=DIRECTION('',(0.,0.,-1.));
#324=DIRECTION('',(-1.,0.,0.));
#325=DIRECTION('',(0.,0.,-1.));
#326=DIRECTION('',(-1.,0.,0.));
#327=DIRECTION('',(0.,0.,-1.));
#328=DIRECTION('',(-1.,0.,0.));
#329=DIRECTION('',(0.,0.,-1.));
#330=DIRECTION('',(-1.,0.,0.));
#331=DIRECTION('',(0.,0.,-1.));
#332=DIRECTION('',(-1.,0.,0.));
#333=DIRECTION('',(0.,0.,1.));
#334=DIRECTION('',(1.,0.,0.));
#335=DIRECTION('',(0.,0.,-1.));
#336=DIRECTION('',(-1.,0.,0.));
#337=DIRECTION('',(0.,0.,-1.));
#338=DIRECTION('',(-1.,0.,0.));
#339=DIRECTION('',(0.,0.,-1.));
#340=DIRECTION('',(-1.,0.,0.));
#341=DIRECTION('',(0.,0.,-1.));
#342=DIRECTION('',(-1.,0.,0.));
#343=DIRECTION('',(0.,0.,-1.));
#344=DIRECTION('',(-1.,0.,0.));
#345=DIRECTION('',(0.,0.,-1.));
#346=DIRECTION('',(-1.,0.,0.));
#347=DIRECTION('',(0.,0.,-1.));
#348=DIRECTION('',(-1.,0.,0.));
#349=DIRECTION('',(0.,0.,-1.));
#350=DIRECTION('',(-1.,0.,0.));
#351=DIRECTION('',(0.,0.,-1.));
#352=DIRECTION('',(-1.,0.,0.));
#353=DIRECTION('',(0.,0.,1.));
#354=DIRECTION('',(1.,0.,0.));
#355=DIRECTION('',(0.,0.,-1.));
#356=DIRECTION('',(-1.,0.,0.));
#357=DIRECTION('',(0.,0.,1.));
#358=DIRECTION('',(1.,0.,0.));
#359=DIRECTION('',(-1.,0.,0.));
#360=DIRECTION('',(0.,0.,1.));
#361=DIRECTION('',(0.,0.,1.));
#362=DIRECTION('',(0.,-1.,0.));
#363=DIRECTION('',(0.,0.,1.));
#364=DIRECTION('',(-0.5,-0.866025403784439,0.));
#365=DIRECTION('',(0.866025403784439,-0.5,0.));
#366=DIRECTION('',(0.,0.,1.));
#367=DIRECTION('',(0.866025403784439,-0.5,0.));
#368=DIRECTION('',(0.5,-0.866025403784439,0.));
#369=DIRECTION('',(0.866025403784439,0.5,0.));
#370=DIRECTION('',(0.,0.,1.));
#371=DIRECTION('',(0.866025403784439,0.5,0.));
#372=DIRECTION('',(1.,0.,0.));
#373=DIRECTION('',(0.,0.,-1.));
#374=DIRECTION('',(0.,0.,1.));
#375=DIRECTION('',(0.,1.,0.));
#376=DIRECTION('',(0.5,0.866025403784439,0.));
#377=DIRECTION('',(-0.866025403784439,0.5,0.));
#378=DIRECTION('',(0.,0.,1.));
#379=DIRECTION('',(-0.866025403784439,0.5,0.));
#380=DIRECTION('',(-0.5,0.866025403784439,0.));
#381=DIRECTION('',(-0.866025403784439,-0.5,0.));
#382=DIRECTION('',(-0.866025403784439,-0.5,0.));
#383=DIRECTION('',(0.,0.,-1.));
#384=DIRECTION('',(-1.,0.,0.));
#385=DIRECTION('',(0.,0.,-1.));
#386=DIRECTION('',(-1.,0.,0.));
#387=DIRECTION('',(0.,0.,1.));
#388=DIRECTION('',(1.,0.,0.));
#389=CARTESIAN_POINT('',(0.,0.,0.));
#390=CARTESIAN_POINT('',(0.,0.,-1.66709890228505));
#391=CARTESIAN_POINT('',(0.,0.,0.));
#392=CARTESIAN_POINT('',(-2.8875,0.,0.));
#393=CARTESIAN_POINT('',(1.73008575552363E-13,-2.88675134594823,-0.000432235619767543));
#394=CARTESIAN_POINT('',(-0.408201737631688,-2.6510759628428,-0.136499481497069));
#395=CARTESIAN_POINT('',(-1.24548169102075,-2.16767215636655,-0.310860464624443));
#396=CARTESIAN_POINT('',(-2.09128970787349,-1.67934467015387,-0.136668999661296));
#397=CARTESIAN_POINT('',(-2.5000000000001,-1.44337567297401,-0.00043223561908469));
#398=CARTESIAN_POINT('',(0.,-2.88675134594813,-0.000432235618377536));
#399=CARTESIAN_POINT('',(-2.5,-1.44337567297406,-0.000432235618377536));
#400=CARTESIAN_POINT('',(-2.5,-1.44337567297406,-0.000432235618377382));
#401=CARTESIAN_POINT('',(-2.5,-0.973914880397785,-0.135953893102323));
#402=CARTESIAN_POINT('',(-2.5,0.00698920358734197,-0.311380441094195));
#403=CARTESIAN_POINT('',(-2.5,0.973155533939784,-0.136173097543305));
#404=CARTESIAN_POINT('',(-2.5,1.44337567297407,-0.000432235618391654));
#405=CARTESIAN_POINT('',(-2.5,1.44337567297406,-0.000432235618377536));
#406=CARTESIAN_POINT('',(-2.50000000000017,1.44337567297397,-0.000432235619767505));
#407=CARTESIAN_POINT('',(-2.09179826236831,1.67905105607939,-0.136499481497069));
#408=CARTESIAN_POINT('',(-1.25451830897925,2.16245486255565,-0.310860464624442));
#409=CARTESIAN_POINT('',(-0.408710292126506,2.65078234876832,-0.136668999661296));
#410=CARTESIAN_POINT('',(1.01701231378442E-13,2.88675134594819,-0.000432235619084746));
#411=CARTESIAN_POINT('',(0.,2.88675134594813,-0.000432235618378187));
#412=CARTESIAN_POINT('',(-1.72950452879441E-13,2.88675134594823,-0.000432235619767563));
#413=CARTESIAN_POINT('',(0.408201737631688,2.6510759628428,-0.136499481497069));
#414=CARTESIAN_POINT('',(1.24548169102075,2.16767215636655,-0.310860464624443));
#415=CARTESIAN_POINT('',(2.09128970787349,1.67934467015387,-0.136668999661296));
#416=CARTESIAN_POINT('',(2.5000000000001,1.44337567297401,-0.00043223561908469));
#417=CARTESIAN_POINT('',(2.5,1.44337567297406,-0.000432235618377536));
#418=CARTESIAN_POINT('',(2.5,1.44337567297406,-0.000432235618377382));
#419=CARTESIAN_POINT('',(2.5,0.973914880397785,-0.135953893102323));
#420=CARTESIAN_POINT('',(2.5,-0.00698920358734197,-0.311380441094195));
#421=CARTESIAN_POINT('',(2.5,-0.973155533939784,-0.136173097543305));
#422=CARTESIAN_POINT('',(2.5,-1.44337567297407,-0.000432235618391654));
#423=CARTESIAN_POINT('',(2.5,-1.44337567297406,-0.000432235618377536));
#424=CARTESIAN_POINT('',(2.50000000000017,-1.44337567297397,-0.000432235619767505));
#425=CARTESIAN_POINT('',(2.09179826236831,-1.67905105607939,-0.136499481497069));
#426=CARTESIAN_POINT('',(1.25451830897925,-2.16245486255565,-0.310860464624442));
#427=CARTESIAN_POINT('',(0.408710292126506,-2.65078234876832,-0.136668999661296));
#428=CARTESIAN_POINT('',(-1.01701231378442E-13,-2.88675134594819,-0.000432235619084746));
#429=CARTESIAN_POINT('',(0.,2.8875,0.));
#430=CARTESIAN_POINT('',(0.,0.,0.));
#431=CARTESIAN_POINT('',(-4.,0.,0.));
#432=CARTESIAN_POINT('',(0.,0.,0.));
#433=CARTESIAN_POINT('',(0.,0.,-0.999999999999999));
#434=CARTESIAN_POINT('',(-5.,0.,-0.999999999999999));
#435=CARTESIAN_POINT('',(0.,0.,-14.5));
#436=CARTESIAN_POINT('',(0.,0.,-8.));
#437=CARTESIAN_POINT('',(-5.,0.,-8.));
#438=CARTESIAN_POINT('',(0.,5.,-8.));
#439=CARTESIAN_POINT('',(0.,0.,-8.));
#440=CARTESIAN_POINT('',(-3.9865,0.,-8.));
#441=CARTESIAN_POINT('',(0.,0.,-8.6));
#442=CARTESIAN_POINT('',(0.,0.,-8.6));
#443=CARTESIAN_POINT('',(-3.3865,0.,-8.6));
#444=CARTESIAN_POINT('',(0.,0.,-14.5));
#445=CARTESIAN_POINT('',(0.,0.,-9.));
#446=CARTESIAN_POINT('',(-3.3865,0.,-9.));
#447=CARTESIAN_POINT('',(0.,0.,-9.));
#448=CARTESIAN_POINT('',(0.,0.,-9.6135));
#449=CARTESIAN_POINT('',(-4.,0.,-9.6135));
#450=CARTESIAN_POINT('',(0.,0.,-14.5));
#451=CARTESIAN_POINT('',(0.,0.,-13.8865));
#452=CARTESIAN_POINT('',(-4.,0.,-13.8865));
#453=CARTESIAN_POINT('',(0.,0.,-13.8865));
#454=CARTESIAN_POINT('',(0.,0.,-14.5));
#455=CARTESIAN_POINT('',(-3.3865,0.,-14.5));
#456=CARTESIAN_POINT('',(0.,3.3865,-14.5));
#457=CARTESIAN_POINT('',(-2.5,1.44337567297406,-4.));
#458=CARTESIAN_POINT('',(-2.5,-1.44337567297406,-4.));
#459=CARTESIAN_POINT('',(-2.5,-1.44337567297406,-4.));
#460=CARTESIAN_POINT('',(-2.5,1.44337567297406,-4.));
#461=CARTESIAN_POINT('',(-2.5,1.44337567297406,-4.));
#462=CARTESIAN_POINT('',(-2.5,1.44337567297406,-4.));
#463=CARTESIAN_POINT('',(-2.5,-1.44337567297406,-4.));
#464=CARTESIAN_POINT('',(0.,-2.88675134594813,-4.));
#465=CARTESIAN_POINT('',(0.,-2.88675134594813,-4.));
#466=CARTESIAN_POINT('',(-2.5,-1.44337567297406,-4.));
#467=CARTESIAN_POINT('',(0.,-2.88675134594813,-4.));
#468=CARTESIAN_POINT('',(2.5,-1.44337567297406,-4.));
#469=CARTESIAN_POINT('',(2.5,-1.44337567297406,-4.));
#470=CARTESIAN_POINT('',(0.,-2.88675134594813,-4.));
#471=CARTESIAN_POINT('',(2.5,-1.44337567297406,-4.));
#472=CARTESIAN_POINT('',(2.5,1.44337567297406,-4.));
#473=CARTESIAN_POINT('',(2.5,1.44337567297406,-4.));
#474=CARTESIAN_POINT('',(2.5,-1.44337567297406,-4.));
#475=CARTESIAN_POINT('',(2.5,1.44337567297406,-4.));
#476=CARTESIAN_POINT('',(0.,2.88675134594813,-4.));
#477=CARTESIAN_POINT('',(0.,2.88675134594813,-4.));
#478=CARTESIAN_POINT('',(2.5,1.44337567297406,-4.));
#479=CARTESIAN_POINT('',(0.,2.88675134594813,-4.));
#480=CARTESIAN_POINT('',(0.,2.88675134594813,-4.));
#481=CARTESIAN_POINT('',(0.,0.,-4.));
#482=CARTESIAN_POINT('',(0.,0.,-4.));
#483=CARTESIAN_POINT('',(-2.8875,0.,-4.));
#484=CARTESIAN_POINT('',(0.,0.,-4.));
#485=CARTESIAN_POINT('',(0.,-4.33680868994202E-16,-5.66709890228504));
#486=MECHANICAL_DESIGN_GEOMETRIC_PRESENTATION_REPRESENTATION('',(#273),
#487);
#487=(
GEOMETRIC_REPRESENTATION_CONTEXT(3)
GLOBAL_UNCERTAINTY_ASSIGNED_CONTEXT((#488))
GLOBAL_UNIT_ASSIGNED_CONTEXT((#491,#490,#489))
REPRESENTATION_CONTEXT('9236 GBS-32','TOP_LEVEL_ASSEMBLY_PART')
);
#488=UNCERTAINTY_MEASURE_WITH_UNIT(LENGTH_MEASURE(0.005),#491,
'DISTANCE_ACCURACY_VALUE','Maximum Tolerance applied to model');
#489=(
NAMED_UNIT(*)
SI_UNIT($,.STERADIAN.)
SOLID_ANGLE_UNIT()
);
#490=(
NAMED_UNIT(*)
PLANE_ANGLE_UNIT()
SI_UNIT($,.RADIAN.)
);
#491=(
LENGTH_UNIT()
NAMED_UNIT(*)
SI_UNIT(.MILLI.,.METRE.)
);
#492=PRODUCT_DEFINITION_SHAPE('','',#493);
#493=PRODUCT_DEFINITION('','',#495,#494);
#494=PRODUCT_DEFINITION_CONTEXT('',#501,'design');
#495=PRODUCT_DEFINITION_FORMATION_WITH_SPECIFIED_SOURCE('','',#497,
 .NOT_KNOWN.);
#496=PRODUCT_RELATED_PRODUCT_CATEGORY('','',(#497));
#497=PRODUCT('9236 GBS-32','9236 GBS-32','9236 GBS-32',(#499));
#498=PRODUCT_CATEGORY('','');
#499=PRODUCT_CONTEXT('',#501,'mechanical');
#500=APPLICATION_PROTOCOL_DEFINITION('international standard',
'automotive_design',2010,#501);
#501=APPLICATION_CONTEXT(
'core data for automotive mechanical design processes');
ENDSEC;
END-ISO-10303-21;
