ISO-10303-21;
HEADER;
/* Generated by software containing ST-Developer
 * from STEP Tools, Inc. (www.steptools.com) 
 */
/* OPTION: using custom renumber hook */

FILE_DESCRIPTION(
/* description */ ('STEP AP214'),
/* implementation_level */ '2;1');

FILE_NAME(
/* name */ '9239_GBS-63',
/* time_stamp */ '2024-08-28T20:15:35+02:00',
/* author */ ('License CC BY-ND 4.0'),
/* organization */ ('CADENAS'),
/* preprocessor_version */ 'ST-DEVELOPER v19.3',
/* originating_system */ 'PARTsolutions',
/* authorisation */ '  ');

FILE_SCHEMA (('AUTOMOTIVE_DESIGN {1 0 10303 214 3 1 1}'));
ENDSEC;

DATA;
#10=PROPERTY_DEFINITION_REPRESENTATION(#14,#12);
#11=PROPERTY_DEFINITION_REPRESENTATION(#15,#13);
#12=REPRESENTATION('',(#16),#487);
#13=REPRESENTATION('',(#17),#487);
#14=PROPERTY_DEFINITION('pmi validation property','',#492);
#15=PROPERTY_DEFINITION('pmi validation property','',#492);
#16=VALUE_REPRESENTATION_ITEM('number of annotations',COUNT_MEASURE(0.));
#17=VALUE_REPRESENTATION_ITEM('number of views',COUNT_MEASURE(0.));
#18=SHAPE_REPRESENTATION_RELATIONSHIP('','',#283,#19);
#19=ADVANCED_BREP_SHAPE_REPRESENTATION('',(#281),#487);
#20=VERTEX_LOOP('',#175);
#21=LINE('',#458,#33);
#22=LINE('',#460,#34);
#23=LINE('',#462,#35);
#24=LINE('',#464,#36);
#25=LINE('',#466,#37);
#26=LINE('',#468,#38);
#27=LINE('',#470,#39);
#28=LINE('',#472,#40);
#29=LINE('',#474,#41);
#30=LINE('',#476,#42);
#31=LINE('',#478,#43);
#32=LINE('',#480,#44);
#33=VECTOR('',#361,1000.);
#34=VECTOR('',#362,1000.);
#35=VECTOR('',#363,1000.);
#36=VECTOR('',#366,1000.);
#37=VECTOR('',#367,1000.);
#38=VECTOR('',#370,1000.);
#39=VECTOR('',#371,1000.);
#40=VECTOR('',#374,1000.);
#41=VECTOR('',#375,1000.);
#42=VECTOR('',#378,1000.);
#43=VECTOR('',#379,1000.);
#44=VECTOR('',#382,1000.);
#45=TOROIDAL_SURFACE('',#295,6.68,0.599999999999996);
#46=CYLINDRICAL_SURFACE('',#291,8.);
#47=CYLINDRICAL_SURFACE('',#297,6.08);
#48=CYLINDRICAL_SURFACE('',#301,7.);
#49=PLANE('',#287);
#50=PLANE('',#293);
#51=PLANE('',#305);
#52=PLANE('',#306);
#53=PLANE('',#307);
#54=PLANE('',#308);
#55=PLANE('',#309);
#56=PLANE('',#310);
#57=PLANE('',#311);
#58=PLANE('',#312);
#59=B_SPLINE_CURVE_WITH_KNOTS('',3,(#393,#394,#395,#396,#397),
 .UNSPECIFIED.,.F.,.F.,(4,1,4),(2.38073758161932E-7,0.00233260784677475,
0.00466497761979134),.UNSPECIFIED.);
#60=B_SPLINE_CURVE_WITH_KNOTS('',3,(#400,#401,#402,#403,#404),
 .UNSPECIFIED.,.F.,.F.,(4,1,4),(0.00581871635522493,0.00817023015878853,
0.0105217439623521),.UNSPECIFIED.);
#61=B_SPLINE_CURVE_WITH_KNOTS('',3,(#406,#407,#408,#409,#410),
 .UNSPECIFIED.,.F.,.F.,(4,1,4),(2.38073758161873E-7,0.00233260784677475,
0.00466497761979134),.UNSPECIFIED.);
#62=B_SPLINE_CURVE_WITH_KNOTS('',3,(#412,#413,#414,#415,#416),
 .UNSPECIFIED.,.F.,.F.,(4,1,4),(2.38073758161967E-7,0.00233260784677475,
0.00466497761979134),.UNSPECIFIED.);
#63=B_SPLINE_CURVE_WITH_KNOTS('',3,(#418,#419,#420,#421,#422),
 .UNSPECIFIED.,.F.,.F.,(4,1,4),(0.00581871635522493,0.00817023015878853,
0.0105217439623521),.UNSPECIFIED.);
#64=B_SPLINE_CURVE_WITH_KNOTS('',3,(#424,#425,#426,#427,#428),
 .UNSPECIFIED.,.F.,.F.,(4,1,4),(2.38073758161872E-7,0.00233260784677475,
0.00466497761979134),.UNSPECIFIED.);
#65=ORIENTED_EDGE('',*,*,#123,.F.);
#66=ORIENTED_EDGE('',*,*,#124,.T.);
#67=ORIENTED_EDGE('',*,*,#125,.T.);
#68=ORIENTED_EDGE('',*,*,#126,.T.);
#69=ORIENTED_EDGE('',*,*,#127,.T.);
#70=ORIENTED_EDGE('',*,*,#128,.T.);
#71=ORIENTED_EDGE('',*,*,#129,.T.);
#72=ORIENTED_EDGE('',*,*,#130,.F.);
#73=ORIENTED_EDGE('',*,*,#123,.T.);
#74=ORIENTED_EDGE('',*,*,#131,.F.);
#75=ORIENTED_EDGE('',*,*,#130,.T.);
#76=ORIENTED_EDGE('',*,*,#132,.F.);
#77=ORIENTED_EDGE('',*,*,#131,.T.);
#78=ORIENTED_EDGE('',*,*,#133,.F.);
#79=ORIENTED_EDGE('',*,*,#132,.T.);
#80=ORIENTED_EDGE('',*,*,#134,.F.);
#81=ORIENTED_EDGE('',*,*,#133,.T.);
#82=ORIENTED_EDGE('',*,*,#135,.F.);
#83=ORIENTED_EDGE('',*,*,#134,.T.);
#84=ORIENTED_EDGE('',*,*,#136,.F.);
#85=ORIENTED_EDGE('',*,*,#135,.T.);
#86=ORIENTED_EDGE('',*,*,#137,.F.);
#87=ORIENTED_EDGE('',*,*,#136,.T.);
#88=ORIENTED_EDGE('',*,*,#138,.F.);
#89=ORIENTED_EDGE('',*,*,#137,.T.);
#90=ORIENTED_EDGE('',*,*,#138,.T.);
#91=ORIENTED_EDGE('',*,*,#139,.F.);
#92=ORIENTED_EDGE('',*,*,#140,.F.);
#93=ORIENTED_EDGE('',*,*,#141,.T.);
#94=ORIENTED_EDGE('',*,*,#125,.F.);
#95=ORIENTED_EDGE('',*,*,#142,.F.);
#96=ORIENTED_EDGE('',*,*,#143,.F.);
#97=ORIENTED_EDGE('',*,*,#139,.T.);
#98=ORIENTED_EDGE('',*,*,#124,.F.);
#99=ORIENTED_EDGE('',*,*,#144,.F.);
#100=ORIENTED_EDGE('',*,*,#145,.F.);
#101=ORIENTED_EDGE('',*,*,#142,.T.);
#102=ORIENTED_EDGE('',*,*,#129,.F.);
#103=ORIENTED_EDGE('',*,*,#146,.F.);
#104=ORIENTED_EDGE('',*,*,#147,.F.);
#105=ORIENTED_EDGE('',*,*,#144,.T.);
#106=ORIENTED_EDGE('',*,*,#128,.F.);
#107=ORIENTED_EDGE('',*,*,#148,.F.);
#108=ORIENTED_EDGE('',*,*,#149,.F.);
#109=ORIENTED_EDGE('',*,*,#146,.T.);
#110=ORIENTED_EDGE('',*,*,#127,.F.);
#111=ORIENTED_EDGE('',*,*,#141,.F.);
#112=ORIENTED_EDGE('',*,*,#150,.F.);
#113=ORIENTED_EDGE('',*,*,#148,.T.);
#114=ORIENTED_EDGE('',*,*,#126,.F.);
#115=ORIENTED_EDGE('',*,*,#151,.T.);
#116=ORIENTED_EDGE('',*,*,#140,.T.);
#117=ORIENTED_EDGE('',*,*,#143,.T.);
#118=ORIENTED_EDGE('',*,*,#145,.T.);
#119=ORIENTED_EDGE('',*,*,#147,.T.);
#120=ORIENTED_EDGE('',*,*,#149,.T.);
#121=ORIENTED_EDGE('',*,*,#150,.T.);
#122=ORIENTED_EDGE('',*,*,#151,.F.);
#123=EDGE_CURVE('',#152,#152,#176,.T.);
#124=EDGE_CURVE('',#153,#154,#59,.T.);
#125=EDGE_CURVE('',#154,#155,#60,.T.);
#126=EDGE_CURVE('',#155,#156,#61,.T.);
#127=EDGE_CURVE('',#156,#157,#62,.T.);
#128=EDGE_CURVE('',#157,#158,#63,.T.);
#129=EDGE_CURVE('',#158,#153,#64,.T.);
#130=EDGE_CURVE('',#159,#159,#177,.T.);
#131=EDGE_CURVE('',#160,#160,#178,.T.);
#132=EDGE_CURVE('',#161,#161,#179,.T.);
#133=EDGE_CURVE('',#162,#162,#180,.T.);
#134=EDGE_CURVE('',#163,#163,#181,.T.);
#135=EDGE_CURVE('',#164,#164,#182,.T.);
#136=EDGE_CURVE('',#165,#165,#183,.T.);
#137=EDGE_CURVE('',#166,#166,#184,.T.);
#138=EDGE_CURVE('',#167,#167,#185,.T.);
#139=EDGE_CURVE('',#168,#154,#21,.T.);
#140=EDGE_CURVE('',#169,#168,#22,.T.);
#141=EDGE_CURVE('',#169,#155,#23,.T.);
#142=EDGE_CURVE('',#170,#153,#24,.T.);
#143=EDGE_CURVE('',#168,#170,#25,.T.);
#144=EDGE_CURVE('',#171,#158,#26,.T.);
#145=EDGE_CURVE('',#170,#171,#27,.T.);
#146=EDGE_CURVE('',#172,#157,#28,.T.);
#147=EDGE_CURVE('',#171,#172,#29,.T.);
#148=EDGE_CURVE('',#173,#156,#30,.T.);
#149=EDGE_CURVE('',#172,#173,#31,.T.);
#150=EDGE_CURVE('',#173,#169,#32,.T.);
#151=EDGE_CURVE('',#174,#174,#186,.T.);
#152=VERTEX_POINT('',#392);
#153=VERTEX_POINT('',#398);
#154=VERTEX_POINT('',#399);
#155=VERTEX_POINT('',#405);
#156=VERTEX_POINT('',#411);
#157=VERTEX_POINT('',#417);
#158=VERTEX_POINT('',#423);
#159=VERTEX_POINT('',#431);
#160=VERTEX_POINT('',#434);
#161=VERTEX_POINT('',#437);
#162=VERTEX_POINT('',#440);
#163=VERTEX_POINT('',#443);
#164=VERTEX_POINT('',#446);
#165=VERTEX_POINT('',#449);
#166=VERTEX_POINT('',#452);
#167=VERTEX_POINT('',#455);
#168=VERTEX_POINT('',#459);
#169=VERTEX_POINT('',#461);
#170=VERTEX_POINT('',#465);
#171=VERTEX_POINT('',#469);
#172=VERTEX_POINT('',#473);
#173=VERTEX_POINT('',#477);
#174=VERTEX_POINT('',#483);
#175=VERTEX_POINT('',#485);
#176=CIRCLE('',#286,4.62);
#177=CIRCLE('',#288,7.);
#178=CIRCLE('',#290,8.);
#179=CIRCLE('',#292,8.);
#180=CIRCLE('',#294,6.68);
#181=CIRCLE('',#296,6.08);
#182=CIRCLE('',#298,6.08);
#183=CIRCLE('',#300,7.);
#184=CIRCLE('',#302,7.);
#185=CIRCLE('',#304,6.08);
#186=CIRCLE('',#313,4.62000000000001);
#187=EDGE_LOOP('',(#65));
#188=EDGE_LOOP('',(#66,#67,#68,#69,#70,#71));
#189=EDGE_LOOP('',(#72));
#190=EDGE_LOOP('',(#73));
#191=EDGE_LOOP('',(#74));
#192=EDGE_LOOP('',(#75));
#193=EDGE_LOOP('',(#76));
#194=EDGE_LOOP('',(#77));
#195=EDGE_LOOP('',(#78));
#196=EDGE_LOOP('',(#79));
#197=EDGE_LOOP('',(#80));
#198=EDGE_LOOP('',(#81));
#199=EDGE_LOOP('',(#82));
#200=EDGE_LOOP('',(#83));
#201=EDGE_LOOP('',(#84));
#202=EDGE_LOOP('',(#85));
#203=EDGE_LOOP('',(#86));
#204=EDGE_LOOP('',(#87));
#205=EDGE_LOOP('',(#88));
#206=EDGE_LOOP('',(#89));
#207=EDGE_LOOP('',(#90));
#208=EDGE_LOOP('',(#91,#92,#93,#94));
#209=EDGE_LOOP('',(#95,#96,#97,#98));
#210=EDGE_LOOP('',(#99,#100,#101,#102));
#211=EDGE_LOOP('',(#103,#104,#105,#106));
#212=EDGE_LOOP('',(#107,#108,#109,#110));
#213=EDGE_LOOP('',(#111,#112,#113,#114));
#214=EDGE_LOOP('',(#115));
#215=EDGE_LOOP('',(#116,#117,#118,#119,#120,#121));
#216=EDGE_LOOP('',(#122));
#217=FACE_BOUND('',#187,.T.);
#218=FACE_BOUND('',#188,.T.);
#219=FACE_BOUND('',#189,.T.);
#220=FACE_BOUND('',#190,.T.);
#221=FACE_BOUND('',#191,.T.);
#222=FACE_BOUND('',#192,.T.);
#223=FACE_BOUND('',#193,.T.);
#224=FACE_BOUND('',#194,.T.);
#225=FACE_BOUND('',#195,.T.);
#226=FACE_BOUND('',#196,.T.);
#227=FACE_BOUND('',#197,.T.);
#228=FACE_BOUND('',#198,.T.);
#229=FACE_BOUND('',#199,.T.);
#230=FACE_BOUND('',#200,.T.);
#231=FACE_BOUND('',#201,.T.);
#232=FACE_BOUND('',#202,.T.);
#233=FACE_BOUND('',#203,.T.);
#234=FACE_BOUND('',#204,.T.);
#235=FACE_BOUND('',#205,.T.);
#236=FACE_BOUND('',#206,.T.);
#237=FACE_BOUND('',#207,.T.);
#238=FACE_BOUND('',#208,.T.);
#239=FACE_BOUND('',#209,.T.);
#240=FACE_BOUND('',#210,.T.);
#241=FACE_BOUND('',#211,.T.);
#242=FACE_BOUND('',#212,.T.);
#243=FACE_BOUND('',#213,.T.);
#244=FACE_BOUND('',#214,.T.);
#245=FACE_BOUND('',#215,.T.);
#246=FACE_BOUND('',#20,.T.);
#247=FACE_BOUND('',#216,.T.);
#248=CONICAL_SURFACE('',#285,1.30104260698261E-15,1.0471975511966);
#249=CONICAL_SURFACE('',#289,7.,0.785398163397447);
#250=CONICAL_SURFACE('',#299,6.08,0.541052068118242);
#251=CONICAL_SURFACE('',#303,7.,0.785398163397444);
#252=CONICAL_SURFACE('',#314,4.62000000000001,1.0471975511966);
#253=ADVANCED_FACE('',(#217,#218),#248,.F.);
#254=ADVANCED_FACE('',(#219,#220),#49,.F.);
#255=ADVANCED_FACE('',(#221,#222),#249,.T.);
#256=ADVANCED_FACE('',(#223,#224),#46,.T.);
#257=ADVANCED_FACE('',(#225,#226),#50,.F.);
#258=ADVANCED_FACE('',(#227,#228),#45,.F.);
#259=ADVANCED_FACE('',(#229,#230),#47,.T.);
#260=ADVANCED_FACE('',(#231,#232),#250,.T.);
#261=ADVANCED_FACE('',(#233,#234),#48,.T.);
#262=ADVANCED_FACE('',(#235,#236),#251,.T.);
#263=ADVANCED_FACE('',(#237),#51,.F.);
#264=ADVANCED_FACE('',(#238),#52,.F.);
#265=ADVANCED_FACE('',(#239),#53,.F.);
#266=ADVANCED_FACE('',(#240),#54,.F.);
#267=ADVANCED_FACE('',(#241),#55,.F.);
#268=ADVANCED_FACE('',(#242),#56,.F.);
#269=ADVANCED_FACE('',(#243),#57,.F.);
#270=ADVANCED_FACE('',(#244,#245),#58,.T.);
#271=ADVANCED_FACE('',(#246,#247),#252,.F.);
#272=CLOSED_SHELL('',(#253,#254,#255,#256,#257,#258,#259,#260,#261,#262,
#263,#264,#265,#266,#267,#268,#269,#270,#271));
#273=STYLED_ITEM('',(#274),#281);
#274=PRESENTATION_STYLE_ASSIGNMENT((#275));
#275=SURFACE_STYLE_USAGE(.BOTH.,#276);
#276=SURFACE_SIDE_STYLE('',(#277));
#277=SURFACE_STYLE_FILL_AREA(#278);
#278=FILL_AREA_STYLE('',(#279));
#279=FILL_AREA_STYLE_COLOUR('',#280);
#280=COLOUR_RGB('',0.689999997615814,0.689999997615814,0.689999997615814);
#281=MANIFOLD_SOLID_BREP('9239 GBS-63',#272);
#282=SHAPE_DEFINITION_REPRESENTATION(#492,#283);
#283=SHAPE_REPRESENTATION('9239 GBS-63',(#284),#487);
#284=AXIS2_PLACEMENT_3D('',#389,#315,#316);
#285=AXIS2_PLACEMENT_3D('',#390,#317,#318);
#286=AXIS2_PLACEMENT_3D('',#391,#319,#320);
#287=AXIS2_PLACEMENT_3D('',#429,#321,#322);
#288=AXIS2_PLACEMENT_3D('',#430,#323,#324);
#289=AXIS2_PLACEMENT_3D('',#432,#325,#326);
#290=AXIS2_PLACEMENT_3D('',#433,#327,#328);
#291=AXIS2_PLACEMENT_3D('',#435,#329,#330);
#292=AXIS2_PLACEMENT_3D('',#436,#331,#332);
#293=AXIS2_PLACEMENT_3D('',#438,#333,#334);
#294=AXIS2_PLACEMENT_3D('',#439,#335,#336);
#295=AXIS2_PLACEMENT_3D('',#441,#337,#338);
#296=AXIS2_PLACEMENT_3D('',#442,#339,#340);
#297=AXIS2_PLACEMENT_3D('',#444,#341,#342);
#298=AXIS2_PLACEMENT_3D('',#445,#343,#344);
#299=AXIS2_PLACEMENT_3D('',#447,#345,#346);
#300=AXIS2_PLACEMENT_3D('',#448,#347,#348);
#301=AXIS2_PLACEMENT_3D('',#450,#349,#350);
#302=AXIS2_PLACEMENT_3D('',#451,#351,#352);
#303=AXIS2_PLACEMENT_3D('',#453,#353,#354);
#304=AXIS2_PLACEMENT_3D('',#454,#355,#356);
#305=AXIS2_PLACEMENT_3D('',#456,#357,#358);
#306=AXIS2_PLACEMENT_3D('',#457,#359,#360);
#307=AXIS2_PLACEMENT_3D('',#463,#364,#365);
#308=AXIS2_PLACEMENT_3D('',#467,#368,#369);
#309=AXIS2_PLACEMENT_3D('',#471,#372,#373);
#310=AXIS2_PLACEMENT_3D('',#475,#376,#377);
#311=AXIS2_PLACEMENT_3D('',#479,#380,#381);
#312=AXIS2_PLACEMENT_3D('',#481,#383,#384);
#313=AXIS2_PLACEMENT_3D('',#482,#385,#386);
#314=AXIS2_PLACEMENT_3D('',#484,#387,#388);
#315=DIRECTION('',(0.,0.,1.));
#316=DIRECTION('',(1.,0.,0.));
#317=DIRECTION('',(0.,3.37291802287991E-17,1.));
#318=DIRECTION('',(0.,-1.,3.37291802287991E-17));
#319=DIRECTION('',(0.,-3.37291802287991E-17,-1.));
#320=DIRECTION('',(0.,1.,-3.37291802287991E-17));
#321=DIRECTION('',(0.,-3.37291802287991E-17,-1.));
#322=DIRECTION('',(0.,1.,-3.37291802287991E-17));
#323=DIRECTION('',(0.,-3.37291802287991E-17,-1.));
#324=DIRECTION('',(0.,1.,-3.37291802287991E-17));
#325=DIRECTION('',(0.,-3.37291802287991E-17,-1.));
#326=DIRECTION('',(0.,1.,-3.37291802287991E-17));
#327=DIRECTION('',(0.,-3.37291802287991E-17,-1.));
#328=DIRECTION('',(0.,1.,-3.37291802287991E-17));
#329=DIRECTION('',(0.,-3.37291802287991E-17,-1.));
#330=DIRECTION('',(0.,1.,-3.37291802287991E-17));
#331=DIRECTION('',(0.,-3.37291802287991E-17,-1.));
#332=DIRECTION('',(0.,1.,-3.37291802287991E-17));
#333=DIRECTION('',(0.,3.37291802287991E-17,1.));
#334=DIRECTION('',(0.,-1.,3.37291802287991E-17));
#335=DIRECTION('',(0.,-3.37291802287991E-17,-1.));
#336=DIRECTION('',(0.,1.,-3.37291802287991E-17));
#337=DIRECTION('',(0.,-3.37291802287991E-17,-1.));
#338=DIRECTION('',(0.,1.,-3.37291802287991E-17));
#339=DIRECTION('',(0.,-3.37291802287991E-17,-1.));
#340=DIRECTION('',(0.,1.,-3.37291802287991E-17));
#341=DIRECTION('',(0.,-3.37291802287991E-17,-1.));
#342=DIRECTION('',(0.,1.,-3.37291802287991E-17));
#343=DIRECTION('',(0.,-3.37291802287991E-17,-1.));
#344=DIRECTION('',(0.,1.,-3.37291802287991E-17));
#345=DIRECTION('',(0.,-3.37291802287991E-17,-1.));
#346=DIRECTION('',(0.,1.,-3.37291802287991E-17));
#347=DIRECTION('',(0.,-3.37291802287991E-17,-1.));
#348=DIRECTION('',(0.,1.,-3.37291802287991E-17));
#349=DIRECTION('',(0.,-3.37291802287991E-17,-1.));
#350=DIRECTION('',(0.,1.,-3.37291802287991E-17));
#351=DIRECTION('',(0.,-3.37291802287991E-17,-1.));
#352=DIRECTION('',(0.,1.,-3.37291802287991E-17));
#353=DIRECTION('',(0.,3.37291802287991E-17,1.));
#354=DIRECTION('',(0.,-1.,3.37291802287991E-17));
#355=DIRECTION('',(0.,-3.37291802287991E-17,-1.));
#356=DIRECTION('',(0.,1.,-3.37291802287991E-17));
#357=DIRECTION('',(0.,3.37291802287991E-17,1.));
#358=DIRECTION('',(0.,-1.,3.37291802287991E-17));
#359=DIRECTION('',(-1.,0.,0.));
#360=DIRECTION('',(0.,0.,1.));
#361=DIRECTION('',(0.,0.,1.));
#362=DIRECTION('',(0.,-1.,0.));
#363=DIRECTION('',(0.,0.,1.));
#364=DIRECTION('',(-0.5,-0.866025403784439,0.));
#365=DIRECTION('',(0.866025403784439,-0.5,0.));
#366=DIRECTION('',(0.,0.,1.));
#367=DIRECTION('',(0.866025403784439,-0.5,0.));
#368=DIRECTION('',(0.5,-0.866025403784439,0.));
#369=DIRECTION('',(0.866025403784439,0.5,0.));
#370=DIRECTION('',(0.,0.,1.));
#371=DIRECTION('',(0.866025403784439,0.5,0.));
#372=DIRECTION('',(1.,0.,0.));
#373=DIRECTION('',(0.,0.,-1.));
#374=DIRECTION('',(0.,0.,1.));
#375=DIRECTION('',(0.,1.,0.));
#376=DIRECTION('',(0.5,0.866025403784439,0.));
#377=DIRECTION('',(-0.866025403784439,0.5,0.));
#378=DIRECTION('',(0.,0.,1.));
#379=DIRECTION('',(-0.866025403784439,0.5,0.));
#380=DIRECTION('',(-0.5,0.866025403784439,0.));
#381=DIRECTION('',(-0.866025403784439,-0.5,0.));
#382=DIRECTION('',(-0.866025403784439,-0.5,0.));
#383=DIRECTION('',(0.,-3.32980551754729E-16,-1.));
#384=DIRECTION('',(0.,1.,-3.32980551754729E-16));
#385=DIRECTION('',(0.,-3.32980551754729E-16,-1.));
#386=DIRECTION('',(0.,1.,-3.32980551754729E-16));
#387=DIRECTION('',(0.,3.32980551754729E-16,1.));
#388=DIRECTION('',(0.,-1.,3.32980551754729E-16));
#389=CARTESIAN_POINT('',(0.,0.,0.));
#390=CARTESIAN_POINT('',(0.,8.88178419700125E-16,-2.66735824365607));
#391=CARTESIAN_POINT('',(0.,9.78146226635174E-16,0.));
#392=CARTESIAN_POINT('',(0.,4.62,-1.55828812657052E-16));
#393=CARTESIAN_POINT('',(1.08255816756167E-13,-4.61880215351707,-0.00069157699027188));
#394=CARTESIAN_POINT('',(-0.653123433623318,-4.24172116330053,-0.21839938819809));
#395=CARTESIAN_POINT('',(-1.99276700574433,-3.46827758631832,-0.497376482858113));
#396=CARTESIAN_POINT('',(-3.3460626396019,-2.6869519878175,-0.218670697122571));
#397=CARTESIAN_POINT('',(-4.00000000000006,-2.30940107675847,-0.000691576989844047));
#398=CARTESIAN_POINT('',(0.,-4.61880215351701,-0.000691576989402583));
#399=CARTESIAN_POINT('',(-4.,-2.3094010767585,-0.000691576989403017));
#400=CARTESIAN_POINT('',(-4.,-2.3094010767585,-0.000691576989402406));
#401=CARTESIAN_POINT('',(-4.,-1.55826374387869,-0.217526247657671));
#402=CARTESIAN_POINT('',(-4.,0.0111808779149186,-0.498208717370655));
#403=CARTESIAN_POINT('',(-4.,1.55704899032854,-0.217876916802285));
#404=CARTESIAN_POINT('',(-4.,2.30940107675851,-0.000691576989424949));
#405=CARTESIAN_POINT('',(-4.,2.3094010767585,-0.000691576989403451));
#406=CARTESIAN_POINT('',(-4.00000000000011,2.30940107675844,-0.000691576990271724));
#407=CARTESIAN_POINT('',(-3.34687656637668,2.68648206697498,-0.218399388198089));
#408=CARTESIAN_POINT('',(-2.00723299425568,3.4599256439572,-0.497376482858114));
#409=CARTESIAN_POINT('',(-0.653937360398101,4.24125124245801,-0.218670697122573));
#410=CARTESIAN_POINT('',(6.25190948639785E-14,4.61880215351704,-0.000691576989846023));
#411=CARTESIAN_POINT('',(0.,4.61880215351701,-0.000691576989403885));
#412=CARTESIAN_POINT('',(-1.08166941162432E-13,4.61880215351707,-0.000691576990272385));
#413=CARTESIAN_POINT('',(0.653123433623318,4.24172116330053,-0.21839938819809));
#414=CARTESIAN_POINT('',(1.99276700574432,3.46827758631832,-0.497376482858114));
#415=CARTESIAN_POINT('',(3.3460626396019,2.6869519878175,-0.218670697122572));
#416=CARTESIAN_POINT('',(4.00000000000006,2.30940107675847,-0.000691576989845409));
#417=CARTESIAN_POINT('',(4.,2.3094010767585,-0.000691576989403885));
#418=CARTESIAN_POINT('',(4.,2.3094010767585,-0.000691576989403396));
#419=CARTESIAN_POINT('',(4.,1.55826374387869,-0.217526247657672));
#420=CARTESIAN_POINT('',(4.,-0.0111808779149179,-0.498208717370655));
#421=CARTESIAN_POINT('',(4.,-1.55704899032854,-0.217876916802285));
#422=CARTESIAN_POINT('',(4.,-2.30940107675851,-0.000691576989425077));
#423=CARTESIAN_POINT('',(4.,-2.3094010767585,-0.000691576989403017));
#424=CARTESIAN_POINT('',(4.00000000000011,-2.30940107675844,-0.000691576990271683));
#425=CARTESIAN_POINT('',(3.34687656637668,-2.68648206697498,-0.218399388198089));
#426=CARTESIAN_POINT('',(2.00723299425568,-3.4599256439572,-0.497376482858113));
#427=CARTESIAN_POINT('',(0.6539373603981,-4.24125124245801,-0.218670697122571));
#428=CARTESIAN_POINT('',(-6.41638310154769E-14,-4.61880215351704,-0.000691576989843849));
#429=CARTESIAN_POINT('',(0.,4.62,4.01377244722709E-17));
#430=CARTESIAN_POINT('',(0.,9.78146226635174E-16,0.));
#431=CARTESIAN_POINT('',(0.,7.,-2.36104261601594E-16));
#432=CARTESIAN_POINT('',(0.,9.78146226635174E-16,0.));
#433=CARTESIAN_POINT('',(0.,9.44417046406375E-16,-1.));
#434=CARTESIAN_POINT('',(0.,8.,-1.));
#435=CARTESIAN_POINT('',(0.,0.,-29.));
#436=CARTESIAN_POINT('',(0.,5.39666883660786E-16,-13.));
#437=CARTESIAN_POINT('',(0.,8.,-13.));
#438=CARTESIAN_POINT('',(0.,8.,-13.));
#439=CARTESIAN_POINT('',(0.,5.39666883660786E-16,-13.));
#440=CARTESIAN_POINT('',(0.,6.68,-13.));
#441=CARTESIAN_POINT('',(0.,8.67361737988404E-16,-13.6));
#442=CARTESIAN_POINT('',(0.,5.19429375523506E-16,-13.6));
#443=CARTESIAN_POINT('',(0.,6.08,-13.6));
#444=CARTESIAN_POINT('',(0.,0.,-29.));
#445=CARTESIAN_POINT('',(0.,5.09686267509482E-16,-13.8888628762375));
#446=CARTESIAN_POINT('',(0.,6.08,-13.8888628762375));
#447=CARTESIAN_POINT('',(0.,5.09686267509482E-16,-13.8888628762375));
#448=CARTESIAN_POINT('',(0.,4.58042267507092E-16,-15.42));
#449=CARTESIAN_POINT('',(0.,7.,-15.42));
#450=CARTESIAN_POINT('',(0.,0.,-29.));
#451=CARTESIAN_POINT('',(0.,3.10308458104954E-17,-28.08));
#452=CARTESIAN_POINT('',(0.,7.,-28.08));
#453=CARTESIAN_POINT('',(0.,3.10308458104954E-17,-28.08));
#454=CARTESIAN_POINT('',(0.,6.91695820135342E-33,-29.));
#455=CARTESIAN_POINT('',(0.,6.08,-29.));
#456=CARTESIAN_POINT('',(0.,6.08,-29.));
#457=CARTESIAN_POINT('',(-4.,2.3094010767585,-6.));
#458=CARTESIAN_POINT('',(-4.,-2.3094010767585,-6.));
#459=CARTESIAN_POINT('',(-4.,-2.3094010767585,-6.));
#460=CARTESIAN_POINT('',(-4.,2.3094010767585,-6.));
#461=CARTESIAN_POINT('',(-4.,2.3094010767585,-6.));
#462=CARTESIAN_POINT('',(-4.,2.3094010767585,-6.));
#463=CARTESIAN_POINT('',(-4.,-2.3094010767585,-6.));
#464=CARTESIAN_POINT('',(0.,-4.61880215351701,-6.));
#465=CARTESIAN_POINT('',(3.46812481692939E-31,-4.61880215351701,-6.));
#466=CARTESIAN_POINT('',(-4.,-2.3094010767585,-6.));
#467=CARTESIAN_POINT('',(0.,-4.61880215351701,-6.));
#468=CARTESIAN_POINT('',(4.,-2.3094010767585,-6.));
#469=CARTESIAN_POINT('',(4.,-2.3094010767585,-6.));
#470=CARTESIAN_POINT('',(0.,-4.61880215351701,-6.));
#471=CARTESIAN_POINT('',(4.,-2.3094010767585,-6.));
#472=CARTESIAN_POINT('',(4.,2.3094010767585,-6.));
#473=CARTESIAN_POINT('',(4.,2.3094010767585,-6.));
#474=CARTESIAN_POINT('',(4.,-2.3094010767585,-6.));
#475=CARTESIAN_POINT('',(4.,2.3094010767585,-6.));
#476=CARTESIAN_POINT('',(0.,4.61880215351701,-6.));
#477=CARTESIAN_POINT('',(0.,4.61880215351701,-6.));
#478=CARTESIAN_POINT('',(4.,2.3094010767585,-6.));
#479=CARTESIAN_POINT('',(0.,4.61880215351701,-6.));
#480=CARTESIAN_POINT('',(0.,4.61880215351701,-6.));
#481=CARTESIAN_POINT('',(0.,2.56123670526302E-31,-6.));
#482=CARTESIAN_POINT('',(0.,7.70371977754894E-31,-6.));
#483=CARTESIAN_POINT('',(0.,4.62000000000001,-6.));
#484=CARTESIAN_POINT('',(0.,7.70371977754894E-31,-6.));
#485=CARTESIAN_POINT('',(0.,0.,-8.66735824365607));
#486=MECHANICAL_DESIGN_GEOMETRIC_PRESENTATION_REPRESENTATION('',(#273),
#487);
#487=(
GEOMETRIC_REPRESENTATION_CONTEXT(3)
GLOBAL_UNCERTAINTY_ASSIGNED_CONTEXT((#488))
GLOBAL_UNIT_ASSIGNED_CONTEXT((#491,#490,#489))
REPRESENTATION_CONTEXT('9239 GBS-63','TOP_LEVEL_ASSEMBLY_PART')
);
#488=UNCERTAINTY_MEASURE_WITH_UNIT(LENGTH_MEASURE(0.005),#491,
'DISTANCE_ACCURACY_VALUE','Maximum Tolerance applied to model');
#489=(
NAMED_UNIT(*)
SI_UNIT($,.STERADIAN.)
SOLID_ANGLE_UNIT()
);
#490=(
NAMED_UNIT(*)
PLANE_ANGLE_UNIT()
SI_UNIT($,.RADIAN.)
);
#491=(
LENGTH_UNIT()
NAMED_UNIT(*)
SI_UNIT(.MILLI.,.METRE.)
);
#492=PRODUCT_DEFINITION_SHAPE('','',#493);
#493=PRODUCT_DEFINITION('','',#495,#494);
#494=PRODUCT_DEFINITION_CONTEXT('',#501,'design');
#495=PRODUCT_DEFINITION_FORMATION_WITH_SPECIFIED_SOURCE('','',#497,
 .NOT_KNOWN.);
#496=PRODUCT_RELATED_PRODUCT_CATEGORY('','',(#497));
#497=PRODUCT('9239 GBS-63','9239 GBS-63','9239 GBS-63',(#499));
#498=PRODUCT_CATEGORY('','');
#499=PRODUCT_CONTEXT('',#501,'mechanical');
#500=APPLICATION_PROTOCOL_DEFINITION('international standard',
'automotive_design',2010,#501);
#501=APPLICATION_CONTEXT(
'core data for automotive mechanical design processes');
ENDSEC;
END-ISO-10303-21;
