ISO-10303-21;
HEADER;
/* Generated by software containing ST-Developer
 * from STEP Tools, Inc. (www.steptools.com) 
 */
/* OPTION: using custom renumber hook */

FILE_DESCRIPTION(
/* description */ ('STEP AP214'),
/* implementation_level */ '2;1');

FILE_NAME(
/* name */ '9769_HRM-1',
/* time_stamp */ '2024-08-29T11:50:23+02:00',
/* author */ ('License CC BY-ND 4.0'),
/* organization */ ('CADENAS'),
/* preprocessor_version */ 'ST-DEVELOPER v19.3',
/* originating_system */ 'PARTsolutions',
/* authorisation */ '  ');

FILE_SCHEMA (('AUTOMOTIVE_DESIGN {1 0 10303 214 3 1 1}'));
ENDSEC;

DATA;
#10=PROPERTY_DEFINITION_REPRESENTATION(#14,#12);
#11=PROPERTY_DEFINITION_REPRESENTATION(#15,#13);
#12=REPRESENTATION('',(#16),#597);
#13=REPRESENTATION('',(#17),#597);
#14=PROPERTY_DEFINITION('pmi validation property','',#602);
#15=PROPERTY_DEFINITION('pmi validation property','',#602);
#16=VALUE_REPRESENTATION_ITEM('number of annotations',COUNT_MEASURE(0.));
#17=VALUE_REPRESENTATION_ITEM('number of views',COUNT_MEASURE(0.));
#18=SHAPE_REPRESENTATION_RELATIONSHIP('','',#359,#19);
#19=ADVANCED_BREP_SHAPE_REPRESENTATION('',(#357),#597);
#20=CYLINDRICAL_SURFACE('',#368,2.);
#21=CYLINDRICAL_SURFACE('',#381,0.999999999999999);
#22=CYLINDRICAL_SURFACE('',#391,2.49999999999999);
#23=CYLINDRICAL_SURFACE('',#392,2.49999999999999);
#24=CYLINDRICAL_SURFACE('',#393,3.00000000000001);
#25=CYLINDRICAL_SURFACE('',#394,3.);
#26=CYLINDRICAL_SURFACE('',#395,2.5);
#27=CYLINDRICAL_SURFACE('',#396,2.5);
#28=CYLINDRICAL_SURFACE('',#397,3.);
#29=CYLINDRICAL_SURFACE('',#398,3.);
#30=CIRCLE('',#364,2.5);
#31=CIRCLE('',#365,2.5);
#32=CIRCLE('',#366,2.49999999999999);
#33=CIRCLE('',#367,2.49999999999999);
#34=CIRCLE('',#369,2.);
#35=CIRCLE('',#370,2.);
#36=CIRCLE('',#372,3.);
#37=CIRCLE('',#373,3.);
#38=CIRCLE('',#374,3.00000000000001);
#39=CIRCLE('',#375,3.);
#40=CIRCLE('',#377,3.);
#41=CIRCLE('',#378,3.);
#42=CIRCLE('',#379,3.00000000000001);
#43=CIRCLE('',#380,3.);
#44=CIRCLE('',#382,0.999999999999999);
#45=CIRCLE('',#383,0.999999999999999);
#46=CIRCLE('',#385,2.5);
#47=CIRCLE('',#386,2.5);
#48=CIRCLE('',#387,2.49999999999999);
#49=CIRCLE('',#388,2.49999999999999);
#50=ORIENTED_EDGE('',*,*,#138,.T.);
#51=ORIENTED_EDGE('',*,*,#139,.F.);
#52=ORIENTED_EDGE('',*,*,#140,.F.);
#53=ORIENTED_EDGE('',*,*,#141,.T.);
#54=ORIENTED_EDGE('',*,*,#142,.F.);
#55=ORIENTED_EDGE('',*,*,#143,.F.);
#56=ORIENTED_EDGE('',*,*,#144,.T.);
#57=ORIENTED_EDGE('',*,*,#145,.T.);
#58=ORIENTED_EDGE('',*,*,#146,.F.);
#59=ORIENTED_EDGE('',*,*,#147,.F.);
#60=ORIENTED_EDGE('',*,*,#148,.F.);
#61=ORIENTED_EDGE('',*,*,#149,.T.);
#62=ORIENTED_EDGE('',*,*,#142,.T.);
#63=ORIENTED_EDGE('',*,*,#150,.T.);
#64=ORIENTED_EDGE('',*,*,#151,.T.);
#65=ORIENTED_EDGE('',*,*,#152,.F.);
#66=ORIENTED_EDGE('',*,*,#153,.T.);
#67=ORIENTED_EDGE('',*,*,#154,.F.);
#68=ORIENTED_EDGE('',*,*,#155,.F.);
#69=ORIENTED_EDGE('',*,*,#152,.T.);
#70=ORIENTED_EDGE('',*,*,#156,.F.);
#71=ORIENTED_EDGE('',*,*,#157,.F.);
#72=ORIENTED_EDGE('',*,*,#158,.T.);
#73=ORIENTED_EDGE('',*,*,#159,.T.);
#74=ORIENTED_EDGE('',*,*,#138,.F.);
#75=ORIENTED_EDGE('',*,*,#160,.T.);
#76=ORIENTED_EDGE('',*,*,#161,.F.);
#77=ORIENTED_EDGE('',*,*,#154,.T.);
#78=ORIENTED_EDGE('',*,*,#162,.F.);
#79=ORIENTED_EDGE('',*,*,#163,.F.);
#80=ORIENTED_EDGE('',*,*,#140,.T.);
#81=ORIENTED_EDGE('',*,*,#164,.T.);
#82=ORIENTED_EDGE('',*,*,#165,.T.);
#83=ORIENTED_EDGE('',*,*,#166,.F.);
#84=ORIENTED_EDGE('',*,*,#167,.F.);
#85=ORIENTED_EDGE('',*,*,#168,.T.);
#86=ORIENTED_EDGE('',*,*,#169,.F.);
#87=ORIENTED_EDGE('',*,*,#170,.F.);
#88=ORIENTED_EDGE('',*,*,#171,.T.);
#89=ORIENTED_EDGE('',*,*,#166,.T.);
#90=ORIENTED_EDGE('',*,*,#172,.F.);
#91=ORIENTED_EDGE('',*,*,#173,.F.);
#92=ORIENTED_EDGE('',*,*,#144,.F.);
#93=ORIENTED_EDGE('',*,*,#174,.T.);
#94=ORIENTED_EDGE('',*,*,#175,.F.);
#95=ORIENTED_EDGE('',*,*,#170,.T.);
#96=ORIENTED_EDGE('',*,*,#176,.T.);
#97=ORIENTED_EDGE('',*,*,#177,.T.);
#98=ORIENTED_EDGE('',*,*,#148,.T.);
#99=ORIENTED_EDGE('',*,*,#155,.T.);
#100=ORIENTED_EDGE('',*,*,#161,.T.);
#101=ORIENTED_EDGE('',*,*,#178,.F.);
#102=ORIENTED_EDGE('',*,*,#167,.T.);
#103=ORIENTED_EDGE('',*,*,#171,.F.);
#104=ORIENTED_EDGE('',*,*,#175,.T.);
#105=ORIENTED_EDGE('',*,*,#179,.T.);
#106=ORIENTED_EDGE('',*,*,#169,.T.);
#107=ORIENTED_EDGE('',*,*,#165,.F.);
#108=ORIENTED_EDGE('',*,*,#180,.T.);
#109=ORIENTED_EDGE('',*,*,#158,.F.);
#110=ORIENTED_EDGE('',*,*,#153,.F.);
#111=ORIENTED_EDGE('',*,*,#151,.F.);
#112=ORIENTED_EDGE('',*,*,#181,.F.);
#113=ORIENTED_EDGE('',*,*,#176,.F.);
#114=ORIENTED_EDGE('',*,*,#145,.F.);
#115=ORIENTED_EDGE('',*,*,#177,.F.);
#116=ORIENTED_EDGE('',*,*,#181,.T.);
#117=ORIENTED_EDGE('',*,*,#150,.F.);
#118=ORIENTED_EDGE('',*,*,#179,.F.);
#119=ORIENTED_EDGE('',*,*,#174,.F.);
#120=ORIENTED_EDGE('',*,*,#143,.T.);
#121=ORIENTED_EDGE('',*,*,#149,.F.);
#122=ORIENTED_EDGE('',*,*,#180,.F.);
#123=ORIENTED_EDGE('',*,*,#164,.F.);
#124=ORIENTED_EDGE('',*,*,#139,.T.);
#125=ORIENTED_EDGE('',*,*,#159,.F.);
#126=ORIENTED_EDGE('',*,*,#141,.F.);
#127=ORIENTED_EDGE('',*,*,#168,.F.);
#128=ORIENTED_EDGE('',*,*,#178,.T.);
#129=ORIENTED_EDGE('',*,*,#160,.F.);
#130=ORIENTED_EDGE('',*,*,#173,.T.);
#131=ORIENTED_EDGE('',*,*,#147,.T.);
#132=ORIENTED_EDGE('',*,*,#172,.T.);
#133=ORIENTED_EDGE('',*,*,#146,.T.);
#134=ORIENTED_EDGE('',*,*,#163,.T.);
#135=ORIENTED_EDGE('',*,*,#157,.T.);
#136=ORIENTED_EDGE('',*,*,#162,.T.);
#137=ORIENTED_EDGE('',*,*,#156,.T.);
#138=EDGE_CURVE('',#182,#183,#214,.T.);
#139=EDGE_CURVE('',#184,#183,#215,.T.);
#140=EDGE_CURVE('',#185,#184,#216,.T.);
#141=EDGE_CURVE('',#185,#182,#217,.T.);
#142=EDGE_CURVE('',#186,#187,#218,.T.);
#143=EDGE_CURVE('',#188,#186,#219,.T.);
#144=EDGE_CURVE('',#188,#189,#220,.T.);
#145=EDGE_CURVE('',#189,#187,#221,.T.);
#146=EDGE_CURVE('',#190,#190,#30,.F.);
#147=EDGE_CURVE('',#191,#191,#31,.F.);
#148=EDGE_CURVE('',#192,#193,#222,.T.);
#149=EDGE_CURVE('',#192,#186,#32,.F.);
#150=EDGE_CURVE('',#187,#194,#33,.F.);
#151=EDGE_CURVE('',#194,#195,#223,.T.);
#152=EDGE_CURVE('',#193,#195,#224,.T.);
#153=EDGE_CURVE('',#195,#196,#34,.T.);
#154=EDGE_CURVE('',#197,#196,#225,.T.);
#155=EDGE_CURVE('',#193,#197,#35,.T.);
#156=EDGE_CURVE('',#198,#198,#36,.F.);
#157=EDGE_CURVE('',#199,#199,#37,.F.);
#158=EDGE_CURVE('',#196,#200,#226,.T.);
#159=EDGE_CURVE('',#200,#183,#38,.F.);
#160=EDGE_CURVE('',#182,#201,#39,.F.);
#161=EDGE_CURVE('',#197,#201,#227,.T.);
#162=EDGE_CURVE('',#202,#202,#40,.T.);
#163=EDGE_CURVE('',#203,#203,#41,.T.);
#164=EDGE_CURVE('',#184,#204,#42,.T.);
#165=EDGE_CURVE('',#204,#205,#228,.T.);
#166=EDGE_CURVE('',#206,#205,#229,.T.);
#167=EDGE_CURVE('',#207,#206,#230,.T.);
#168=EDGE_CURVE('',#207,#185,#43,.T.);
#169=EDGE_CURVE('',#208,#205,#44,.T.);
#170=EDGE_CURVE('',#209,#208,#231,.T.);
#171=EDGE_CURVE('',#209,#206,#45,.T.);
#172=EDGE_CURVE('',#210,#210,#46,.T.);
#173=EDGE_CURVE('',#211,#211,#47,.T.);
#174=EDGE_CURVE('',#188,#212,#48,.T.);
#175=EDGE_CURVE('',#209,#212,#232,.T.);
#176=EDGE_CURVE('',#208,#213,#233,.T.);
#177=EDGE_CURVE('',#213,#189,#49,.T.);
#178=EDGE_CURVE('',#207,#201,#234,.T.);
#179=EDGE_CURVE('',#212,#192,#235,.T.);
#180=EDGE_CURVE('',#204,#200,#236,.T.);
#181=EDGE_CURVE('',#213,#194,#237,.T.);
#182=VERTEX_POINT('',#504);
#183=VERTEX_POINT('',#505);
#184=VERTEX_POINT('',#507);
#185=VERTEX_POINT('',#509);
#186=VERTEX_POINT('',#513);
#187=VERTEX_POINT('',#514);
#188=VERTEX_POINT('',#516);
#189=VERTEX_POINT('',#518);
#190=VERTEX_POINT('',#522);
#191=VERTEX_POINT('',#524);
#192=VERTEX_POINT('',#526);
#193=VERTEX_POINT('',#527);
#194=VERTEX_POINT('',#530);
#195=VERTEX_POINT('',#532);
#196=VERTEX_POINT('',#536);
#197=VERTEX_POINT('',#538);
#198=VERTEX_POINT('',#542);
#199=VERTEX_POINT('',#544);
#200=VERTEX_POINT('',#546);
#201=VERTEX_POINT('',#549);
#202=VERTEX_POINT('',#553);
#203=VERTEX_POINT('',#555);
#204=VERTEX_POINT('',#557);
#205=VERTEX_POINT('',#559);
#206=VERTEX_POINT('',#561);
#207=VERTEX_POINT('',#563);
#208=VERTEX_POINT('',#567);
#209=VERTEX_POINT('',#569);
#210=VERTEX_POINT('',#573);
#211=VERTEX_POINT('',#575);
#212=VERTEX_POINT('',#577);
#213=VERTEX_POINT('',#580);
#214=LINE('',#503,#238);
#215=LINE('',#506,#239);
#216=LINE('',#508,#240);
#217=LINE('',#510,#241);
#218=LINE('',#512,#242);
#219=LINE('',#515,#243);
#220=LINE('',#517,#244);
#221=LINE('',#519,#245);
#222=LINE('',#525,#246);
#223=LINE('',#531,#247);
#224=LINE('',#533,#248);
#225=LINE('',#537,#249);
#226=LINE('',#545,#250);
#227=LINE('',#550,#251);
#228=LINE('',#558,#252);
#229=LINE('',#560,#253);
#230=LINE('',#562,#254);
#231=LINE('',#568,#255);
#232=LINE('',#578,#256);
#233=LINE('',#579,#257);
#234=LINE('',#583,#258);
#235=LINE('',#584,#259);
#236=LINE('',#586,#260);
#237=LINE('',#587,#261);
#238=VECTOR('',#403,1000.);
#239=VECTOR('',#404,1000.);
#240=VECTOR('',#405,1000.);
#241=VECTOR('',#406,1000.);
#242=VECTOR('',#409,1000.);
#243=VECTOR('',#410,1000.);
#244=VECTOR('',#411,1000.);
#245=VECTOR('',#412,1000.);
#246=VECTOR('',#419,1000.);
#247=VECTOR('',#424,1000.);
#248=VECTOR('',#425,1000.);
#249=VECTOR('',#430,1000.);
#250=VECTOR('',#439,1000.);
#251=VECTOR('',#444,1000.);
#252=VECTOR('',#453,1000.);
#253=VECTOR('',#454,1000.);
#254=VECTOR('',#455,1000.);
#255=VECTOR('',#462,1000.);
#256=VECTOR('',#473,1000.);
#257=VECTOR('',#474,1000.);
#258=VECTOR('',#479,1000.);
#259=VECTOR('',#480,1000.);
#260=VECTOR('',#483,1000.);
#261=VECTOR('',#484,1000.);
#262=EDGE_LOOP('',(#50,#51,#52,#53));
#263=EDGE_LOOP('',(#54,#55,#56,#57));
#264=EDGE_LOOP('',(#58));
#265=EDGE_LOOP('',(#59));
#266=EDGE_LOOP('',(#60,#61,#62,#63,#64,#65));
#267=EDGE_LOOP('',(#66,#67,#68,#69));
#268=EDGE_LOOP('',(#70));
#269=EDGE_LOOP('',(#71));
#270=EDGE_LOOP('',(#72,#73,#74,#75,#76,#77));
#271=EDGE_LOOP('',(#78));
#272=EDGE_LOOP('',(#79));
#273=EDGE_LOOP('',(#80,#81,#82,#83,#84,#85));
#274=EDGE_LOOP('',(#86,#87,#88,#89));
#275=EDGE_LOOP('',(#90));
#276=EDGE_LOOP('',(#91));
#277=EDGE_LOOP('',(#92,#93,#94,#95,#96,#97));
#278=EDGE_LOOP('',(#98,#99,#100,#101,#102,#103,#104,#105));
#279=EDGE_LOOP('',(#106,#107,#108,#109,#110,#111,#112,#113));
#280=EDGE_LOOP('',(#114,#115,#116,#117));
#281=EDGE_LOOP('',(#118,#119,#120,#121));
#282=EDGE_LOOP('',(#122,#123,#124,#125));
#283=EDGE_LOOP('',(#126,#127,#128,#129));
#284=EDGE_LOOP('',(#130));
#285=EDGE_LOOP('',(#131));
#286=EDGE_LOOP('',(#132));
#287=EDGE_LOOP('',(#133));
#288=EDGE_LOOP('',(#134));
#289=EDGE_LOOP('',(#135));
#290=EDGE_LOOP('',(#136));
#291=EDGE_LOOP('',(#137));
#292=FACE_BOUND('',#262,.T.);
#293=FACE_BOUND('',#263,.T.);
#294=FACE_BOUND('',#264,.T.);
#295=FACE_BOUND('',#265,.T.);
#296=FACE_BOUND('',#266,.T.);
#297=FACE_BOUND('',#267,.T.);
#298=FACE_BOUND('',#268,.T.);
#299=FACE_BOUND('',#269,.T.);
#300=FACE_BOUND('',#270,.T.);
#301=FACE_BOUND('',#271,.T.);
#302=FACE_BOUND('',#272,.T.);
#303=FACE_BOUND('',#273,.T.);
#304=FACE_BOUND('',#274,.T.);
#305=FACE_BOUND('',#275,.T.);
#306=FACE_BOUND('',#276,.T.);
#307=FACE_BOUND('',#277,.T.);
#308=FACE_BOUND('',#278,.T.);
#309=FACE_BOUND('',#279,.T.);
#310=FACE_BOUND('',#280,.T.);
#311=FACE_BOUND('',#281,.T.);
#312=FACE_BOUND('',#282,.T.);
#313=FACE_BOUND('',#283,.T.);
#314=FACE_BOUND('',#284,.T.);
#315=FACE_BOUND('',#285,.T.);
#316=FACE_BOUND('',#286,.T.);
#317=FACE_BOUND('',#287,.T.);
#318=FACE_BOUND('',#288,.T.);
#319=FACE_BOUND('',#289,.T.);
#320=FACE_BOUND('',#290,.T.);
#321=FACE_BOUND('',#291,.T.);
#322=PLANE('',#361);
#323=PLANE('',#362);
#324=PLANE('',#363);
#325=PLANE('',#371);
#326=PLANE('',#376);
#327=PLANE('',#384);
#328=PLANE('',#389);
#329=PLANE('',#390);
#330=ADVANCED_FACE('',(#292),#322,.F.);
#331=ADVANCED_FACE('',(#293),#323,.F.);
#332=ADVANCED_FACE('',(#294,#295,#296),#324,.F.);
#333=ADVANCED_FACE('',(#297),#20,.T.);
#334=ADVANCED_FACE('',(#298,#299,#300),#325,.F.);
#335=ADVANCED_FACE('',(#301,#302,#303),#326,.F.);
#336=ADVANCED_FACE('',(#304),#21,.F.);
#337=ADVANCED_FACE('',(#305,#306,#307),#327,.F.);
#338=ADVANCED_FACE('',(#308),#328,.T.);
#339=ADVANCED_FACE('',(#309),#329,.F.);
#340=ADVANCED_FACE('',(#310),#22,.T.);
#341=ADVANCED_FACE('',(#311),#23,.T.);
#342=ADVANCED_FACE('',(#312),#24,.T.);
#343=ADVANCED_FACE('',(#313),#25,.T.);
#344=ADVANCED_FACE('',(#314,#315),#26,.F.);
#345=ADVANCED_FACE('',(#316,#317),#27,.F.);
#346=ADVANCED_FACE('',(#318,#319),#28,.F.);
#347=ADVANCED_FACE('',(#320,#321),#29,.F.);
#348=CLOSED_SHELL('',(#330,#331,#332,#333,#334,#335,#336,#337,#338,#339,
#340,#341,#342,#343,#344,#345,#346,#347));
#349=STYLED_ITEM('',(#350),#357);
#350=PRESENTATION_STYLE_ASSIGNMENT((#351));
#351=SURFACE_STYLE_USAGE(.BOTH.,#352);
#352=SURFACE_SIDE_STYLE('',(#353));
#353=SURFACE_STYLE_FILL_AREA(#354);
#354=FILL_AREA_STYLE('',(#355));
#355=FILL_AREA_STYLE_COLOUR('',#356);
#356=COLOUR_RGB('',0.689999997615814,0.689999997615814,0.689999997615814);
#357=MANIFOLD_SOLID_BREP('9769 HRM-1',#348);
#358=SHAPE_DEFINITION_REPRESENTATION(#602,#359);
#359=SHAPE_REPRESENTATION('9769 HRM-1',(#360),#597);
#360=AXIS2_PLACEMENT_3D('',#501,#399,#400);
#361=AXIS2_PLACEMENT_3D('',#502,#401,#402);
#362=AXIS2_PLACEMENT_3D('',#511,#407,#408);
#363=AXIS2_PLACEMENT_3D('',#520,#413,#414);
#364=AXIS2_PLACEMENT_3D('',#521,#415,#416);
#365=AXIS2_PLACEMENT_3D('',#523,#417,#418);
#366=AXIS2_PLACEMENT_3D('',#528,#420,#421);
#367=AXIS2_PLACEMENT_3D('',#529,#422,#423);
#368=AXIS2_PLACEMENT_3D('',#534,#426,#427);
#369=AXIS2_PLACEMENT_3D('',#535,#428,#429);
#370=AXIS2_PLACEMENT_3D('',#539,#431,#432);
#371=AXIS2_PLACEMENT_3D('',#540,#433,#434);
#372=AXIS2_PLACEMENT_3D('',#541,#435,#436);
#373=AXIS2_PLACEMENT_3D('',#543,#437,#438);
#374=AXIS2_PLACEMENT_3D('',#547,#440,#441);
#375=AXIS2_PLACEMENT_3D('',#548,#442,#443);
#376=AXIS2_PLACEMENT_3D('',#551,#445,#446);
#377=AXIS2_PLACEMENT_3D('',#552,#447,#448);
#378=AXIS2_PLACEMENT_3D('',#554,#449,#450);
#379=AXIS2_PLACEMENT_3D('',#556,#451,#452);
#380=AXIS2_PLACEMENT_3D('',#564,#456,#457);
#381=AXIS2_PLACEMENT_3D('',#565,#458,#459);
#382=AXIS2_PLACEMENT_3D('',#566,#460,#461);
#383=AXIS2_PLACEMENT_3D('',#570,#463,#464);
#384=AXIS2_PLACEMENT_3D('',#571,#465,#466);
#385=AXIS2_PLACEMENT_3D('',#572,#467,#468);
#386=AXIS2_PLACEMENT_3D('',#574,#469,#470);
#387=AXIS2_PLACEMENT_3D('',#576,#471,#472);
#388=AXIS2_PLACEMENT_3D('',#581,#475,#476);
#389=AXIS2_PLACEMENT_3D('',#582,#477,#478);
#390=AXIS2_PLACEMENT_3D('',#585,#481,#482);
#391=AXIS2_PLACEMENT_3D('',#588,#485,#486);
#392=AXIS2_PLACEMENT_3D('',#589,#487,#488);
#393=AXIS2_PLACEMENT_3D('',#590,#489,#490);
#394=AXIS2_PLACEMENT_3D('',#591,#491,#492);
#395=AXIS2_PLACEMENT_3D('',#592,#493,#494);
#396=AXIS2_PLACEMENT_3D('',#593,#495,#496);
#397=AXIS2_PLACEMENT_3D('',#594,#497,#498);
#398=AXIS2_PLACEMENT_3D('',#595,#499,#500);
#399=DIRECTION('',(0.,0.,1.));
#400=DIRECTION('',(1.,0.,0.));
#401=DIRECTION('',(-1.,0.,0.));
#402=DIRECTION('',(0.,0.,1.));
#403=DIRECTION('',(0.,0.,-1.));
#404=DIRECTION('',(0.,-1.,0.));
#405=DIRECTION('',(0.,0.,-1.));
#406=DIRECTION('',(0.,-1.,0.));
#407=DIRECTION('',(0.,-1.,0.));
#408=DIRECTION('',(0.,0.,-1.));
#409=DIRECTION('',(0.,0.,-1.));
#410=DIRECTION('',(-1.,0.,0.));
#411=DIRECTION('',(0.,0.,-1.));
#412=DIRECTION('',(-1.,0.,0.));
#413=DIRECTION('',(1.,0.,0.));
#414=DIRECTION('',(0.,0.,-1.));
#415=DIRECTION('',(1.,0.,0.));
#416=DIRECTION('',(0.,0.,-1.));
#417=DIRECTION('',(1.,0.,0.));
#418=DIRECTION('',(0.,0.,-1.));
#419=DIRECTION('',(0.,-1.,0.));
#420=DIRECTION('',(1.,0.,0.));
#421=DIRECTION('',(0.,0.,-1.));
#422=DIRECTION('',(1.,0.,0.));
#423=DIRECTION('',(0.,0.,-1.));
#424=DIRECTION('',(0.,-1.,0.));
#425=DIRECTION('',(0.,0.,-1.));
#426=DIRECTION('',(0.,0.,-1.));
#427=DIRECTION('',(-1.,0.,0.));
#428=DIRECTION('',(0.,0.,1.));
#429=DIRECTION('',(1.,0.,0.));
#430=DIRECTION('',(0.,0.,-1.));
#431=DIRECTION('',(0.,0.,1.));
#432=DIRECTION('',(1.,0.,0.));
#433=DIRECTION('',(0.,1.,0.));
#434=DIRECTION('',(0.,0.,1.));
#435=DIRECTION('',(0.,1.,0.));
#436=DIRECTION('',(0.,0.,1.));
#437=DIRECTION('',(0.,1.,0.));
#438=DIRECTION('',(0.,0.,1.));
#439=DIRECTION('',(1.,0.,0.));
#440=DIRECTION('',(0.,1.,0.));
#441=DIRECTION('',(0.,0.,1.));
#442=DIRECTION('',(0.,1.,0.));
#443=DIRECTION('',(0.,0.,1.));
#444=DIRECTION('',(1.,0.,0.));
#445=DIRECTION('',(0.,-1.,0.));
#446=DIRECTION('',(0.,0.,-1.));
#447=DIRECTION('',(0.,1.,0.));
#448=DIRECTION('',(1.,0.,0.));
#449=DIRECTION('',(0.,1.,0.));
#450=DIRECTION('',(1.,0.,0.));
#451=DIRECTION('',(0.,1.,0.));
#452=DIRECTION('',(1.,0.,0.));
#453=DIRECTION('',(-1.,0.,0.));
#454=DIRECTION('',(0.,0.,-1.));
#455=DIRECTION('',(-1.,0.,0.));
#456=DIRECTION('',(0.,1.,0.));
#457=DIRECTION('',(1.,0.,0.));
#458=DIRECTION('',(0.,0.,-1.));
#459=DIRECTION('',(-1.,0.,0.));
#460=DIRECTION('',(0.,0.,1.));
#461=DIRECTION('',(1.,0.,0.));
#462=DIRECTION('',(0.,0.,-1.));
#463=DIRECTION('',(0.,0.,1.));
#464=DIRECTION('',(1.,0.,0.));
#465=DIRECTION('',(-1.,0.,0.));
#466=DIRECTION('',(0.,0.,1.));
#467=DIRECTION('',(1.,0.,0.));
#468=DIRECTION('',(0.,0.,-1.));
#469=DIRECTION('',(1.,0.,0.));
#470=DIRECTION('',(0.,0.,-1.));
#471=DIRECTION('',(1.,0.,0.));
#472=DIRECTION('',(0.,0.,-1.));
#473=DIRECTION('',(0.,1.,0.));
#474=DIRECTION('',(0.,1.,0.));
#475=DIRECTION('',(1.,0.,0.));
#476=DIRECTION('',(0.,0.,-1.));
#477=DIRECTION('',(0.,0.,1.));
#478=DIRECTION('',(1.,0.,0.));
#479=DIRECTION('',(0.,-1.,0.));
#480=DIRECTION('',(-1.,0.,0.));
#481=DIRECTION('',(0.,0.,1.));
#482=DIRECTION('',(1.,0.,0.));
#483=DIRECTION('',(0.,-1.,0.));
#484=DIRECTION('',(-1.,0.,0.));
#485=DIRECTION('',(-1.,0.,0.));
#486=DIRECTION('',(0.,0.,1.));
#487=DIRECTION('',(-1.,0.,0.));
#488=DIRECTION('',(0.,0.,1.));
#489=DIRECTION('',(0.,-1.,0.));
#490=DIRECTION('',(0.,0.,-1.));
#491=DIRECTION('',(0.,-1.,0.));
#492=DIRECTION('',(0.,0.,-1.));
#493=DIRECTION('',(-1.,0.,0.));
#494=DIRECTION('',(0.,0.,1.));
#495=DIRECTION('',(-1.,0.,0.));
#496=DIRECTION('',(0.,0.,1.));
#497=DIRECTION('',(0.,-1.,0.));
#498=DIRECTION('',(0.,0.,-1.));
#499=DIRECTION('',(0.,-1.,0.));
#500=DIRECTION('',(0.,0.,-1.));
#501=CARTESIAN_POINT('',(0.,0.,0.));
#502=CARTESIAN_POINT('',(25.,0.,20.));
#503=CARTESIAN_POINT('',(25.,0.,20.));
#504=CARTESIAN_POINT('',(25.,0.,17.));
#505=CARTESIAN_POINT('',(25.,0.,-17.));
#506=CARTESIAN_POINT('',(25.,2.,-17.));
#507=CARTESIAN_POINT('',(25.,2.,-17.));
#508=CARTESIAN_POINT('',(25.,2.,20.));
#509=CARTESIAN_POINT('',(25.,2.,17.));
#510=CARTESIAN_POINT('',(25.,2.,17.));
#511=CARTESIAN_POINT('',(2.,37.,20.));
#512=CARTESIAN_POINT('',(0.,37.,20.));
#513=CARTESIAN_POINT('',(0.,37.,17.5));
#514=CARTESIAN_POINT('',(0.,37.,-17.5));
#515=CARTESIAN_POINT('',(2.,37.,17.5));
#516=CARTESIAN_POINT('',(2.,37.,17.5));
#517=CARTESIAN_POINT('',(2.,37.,20.));
#518=CARTESIAN_POINT('',(2.,37.,-17.5));
#519=CARTESIAN_POINT('',(2.,37.,-17.5));
#520=CARTESIAN_POINT('',(0.,37.,20.));
#521=CARTESIAN_POINT('',(0.,27.,12.5));
#522=CARTESIAN_POINT('',(0.,27.,10.));
#523=CARTESIAN_POINT('',(0.,27.,-12.5));
#524=CARTESIAN_POINT('',(0.,27.,-15.));
#525=CARTESIAN_POINT('',(0.,37.,20.));
#526=CARTESIAN_POINT('',(0.,34.5,20.));
#527=CARTESIAN_POINT('',(0.,2.,20.));
#528=CARTESIAN_POINT('',(0.,34.5,17.5));
#529=CARTESIAN_POINT('',(0.,34.5,-17.5));
#530=CARTESIAN_POINT('',(0.,34.5,-20.));
#531=CARTESIAN_POINT('',(0.,37.,-20.));
#532=CARTESIAN_POINT('',(0.,2.,-20.));
#533=CARTESIAN_POINT('',(0.,2.,20.));
#534=CARTESIAN_POINT('',(2.,2.,20.));
#535=CARTESIAN_POINT('',(2.,2.,-20.));
#536=CARTESIAN_POINT('',(2.,4.33680868994202E-16,-20.));
#537=CARTESIAN_POINT('',(2.,4.33680868994202E-16,20.));
#538=CARTESIAN_POINT('',(2.,4.33680868994202E-16,20.));
#539=CARTESIAN_POINT('',(2.,2.,20.));
#540=CARTESIAN_POINT('',(2.,0.,20.));
#541=CARTESIAN_POINT('',(12.5,0.,12.5));
#542=CARTESIAN_POINT('',(12.5,0.,15.5));
#543=CARTESIAN_POINT('',(12.5,0.,-12.5));
#544=CARTESIAN_POINT('',(12.5,0.,-9.5));
#545=CARTESIAN_POINT('',(2.,0.,-20.));
#546=CARTESIAN_POINT('',(22.,0.,-20.));
#547=CARTESIAN_POINT('',(22.,0.,-17.));
#548=CARTESIAN_POINT('',(22.,0.,17.));
#549=CARTESIAN_POINT('',(22.,0.,20.));
#550=CARTESIAN_POINT('',(2.,0.,20.));
#551=CARTESIAN_POINT('',(25.,2.,20.));
#552=CARTESIAN_POINT('',(12.5,2.,12.5));
#553=CARTESIAN_POINT('',(15.5,2.,12.5));
#554=CARTESIAN_POINT('',(12.5,2.,-12.5));
#555=CARTESIAN_POINT('',(15.5,2.,-12.5));
#556=CARTESIAN_POINT('',(22.,2.,-17.));
#557=CARTESIAN_POINT('',(22.,2.,-20.));
#558=CARTESIAN_POINT('',(25.,2.,-20.));
#559=CARTESIAN_POINT('',(3.,2.,-20.));
#560=CARTESIAN_POINT('',(3.,2.,20.));
#561=CARTESIAN_POINT('',(3.,2.,20.));
#562=CARTESIAN_POINT('',(25.,2.,20.));
#563=CARTESIAN_POINT('',(22.,2.,20.));
#564=CARTESIAN_POINT('',(22.,2.,17.));
#565=CARTESIAN_POINT('',(3.,3.,20.));
#566=CARTESIAN_POINT('',(3.,3.,-20.));
#567=CARTESIAN_POINT('',(2.,3.,-20.));
#568=CARTESIAN_POINT('',(2.,3.,20.));
#569=CARTESIAN_POINT('',(2.,3.,20.));
#570=CARTESIAN_POINT('',(3.,3.,20.));
#571=CARTESIAN_POINT('',(2.,3.,20.));
#572=CARTESIAN_POINT('',(2.,27.,12.5));
#573=CARTESIAN_POINT('',(2.,27.,10.));
#574=CARTESIAN_POINT('',(2.,27.,-12.5));
#575=CARTESIAN_POINT('',(2.,27.,-15.));
#576=CARTESIAN_POINT('',(2.,34.5,17.5));
#577=CARTESIAN_POINT('',(2.,34.5,20.));
#578=CARTESIAN_POINT('',(2.,3.,20.));
#579=CARTESIAN_POINT('',(2.,3.,-20.));
#580=CARTESIAN_POINT('',(2.,34.5,-20.));
#581=CARTESIAN_POINT('',(2.,34.5,-17.5));
#582=CARTESIAN_POINT('',(2.,2.,20.));
#583=CARTESIAN_POINT('',(22.,2.,20.));
#584=CARTESIAN_POINT('',(2.,34.5,20.));
#585=CARTESIAN_POINT('',(2.,2.,-20.));
#586=CARTESIAN_POINT('',(22.,2.,-20.));
#587=CARTESIAN_POINT('',(2.,34.5,-20.));
#588=CARTESIAN_POINT('',(2.,34.5,-17.5));
#589=CARTESIAN_POINT('',(2.,34.5,17.5));
#590=CARTESIAN_POINT('',(22.,2.,-17.));
#591=CARTESIAN_POINT('',(22.,2.,17.));
#592=CARTESIAN_POINT('',(2.,27.,-12.5));
#593=CARTESIAN_POINT('',(2.,27.,12.5));
#594=CARTESIAN_POINT('',(12.5,2.,-12.5));
#595=CARTESIAN_POINT('',(12.5,2.,12.5));
#596=MECHANICAL_DESIGN_GEOMETRIC_PRESENTATION_REPRESENTATION('',(#349),
#597);
#597=(
GEOMETRIC_REPRESENTATION_CONTEXT(3)
GLOBAL_UNCERTAINTY_ASSIGNED_CONTEXT((#598))
GLOBAL_UNIT_ASSIGNED_CONTEXT((#601,#600,#599))
REPRESENTATION_CONTEXT('9769 HRM-1','TOP_LEVEL_ASSEMBLY_PART')
);
#598=UNCERTAINTY_MEASURE_WITH_UNIT(LENGTH_MEASURE(0.005),#601,
'DISTANCE_ACCURACY_VALUE','Maximum Tolerance applied to model');
#599=(
NAMED_UNIT(*)
SI_UNIT($,.STERADIAN.)
SOLID_ANGLE_UNIT()
);
#600=(
NAMED_UNIT(*)
PLANE_ANGLE_UNIT()
SI_UNIT($,.RADIAN.)
);
#601=(
LENGTH_UNIT()
NAMED_UNIT(*)
SI_UNIT(.MILLI.,.METRE.)
);
#602=PRODUCT_DEFINITION_SHAPE('','',#603);
#603=PRODUCT_DEFINITION('','',#605,#604);
#604=PRODUCT_DEFINITION_CONTEXT('',#611,'design');
#605=PRODUCT_DEFINITION_FORMATION_WITH_SPECIFIED_SOURCE('','',#607,
 .NOT_KNOWN.);
#606=PRODUCT_RELATED_PRODUCT_CATEGORY('','',(#607));
#607=PRODUCT('9769 HRM-1','9769 HRM-1','9769 HRM-1',(#609));
#608=PRODUCT_CATEGORY('','');
#609=PRODUCT_CONTEXT('',#611,'mechanical');
#610=APPLICATION_PROTOCOL_DEFINITION('international standard',
'automotive_design',2010,#611);
#611=APPLICATION_CONTEXT(
'core data for automotive mechanical design processes');
ENDSEC;
END-ISO-10303-21;
