ISO-10303-21;
HEADER;
/* Generated by software containing ST-Developer
 * from STEP Tools, Inc. (www.steptools.com) 
 */
/* OPTION: using custom renumber hook */

FILE_DESCRIPTION(
/* description */ ('STEP AP214'),
/* implementation_level */ '2;1');

FILE_NAME(
/* name */ '9798_SEU-1_8-NPT',
/* time_stamp */ '2024-09-15T00:36:18+02:00',
/* author */ ('License CC BY-ND 4.0'),
/* organization */ ('CADENAS'),
/* preprocessor_version */ 'ST-DEVELOPER v19.3',
/* originating_system */ 'PARTsolutions',
/* authorisation */ '  ');

FILE_SCHEMA (('AUTOMOTIVE_DESIGN {1 0 10303 214 3 1 1}'));
ENDSEC;

DATA;
#10=PROPERTY_DEFINITION_REPRESENTATION(#14,#12);
#11=PROPERTY_DEFINITION_REPRESENTATION(#15,#13);
#12=REPRESENTATION('',(#16),#622);
#13=REPRESENTATION('',(#17),#622);
#14=PROPERTY_DEFINITION('pmi validation property','',#629);
#15=PROPERTY_DEFINITION('pmi validation property','',#629);
#16=VALUE_REPRESENTATION_ITEM('number of annotations',COUNT_MEASURE(0.));
#17=VALUE_REPRESENTATION_ITEM('number of views',COUNT_MEASURE(0.));
#18=CONTEXT_DEPENDENT_SHAPE_REPRESENTATION(#20,#631);
#19=NEXT_ASSEMBLY_USAGE_OCCURRENCE('NAUO1','9798 SEU-1/8-NPT---(geh)',
'9798 SEU-1/8-NPT---(geh)',#632,#633,'');
#20=(
REPRESENTATION_RELATIONSHIP(' ',' ',#337,#336)
REPRESENTATION_RELATIONSHIP_WITH_TRANSFORMATION(#21)
SHAPE_REPRESENTATION_RELATIONSHIP()
);
#21=ITEM_DEFINED_TRANSFORMATION(' ',' ',#338,#383);
#22=SHAPE_REPRESENTATION_RELATIONSHIP('','',#337,#23);
#23=ADVANCED_BREP_SHAPE_REPRESENTATION('',(#333),#623);
#24=CONICAL_SURFACE('',#349,11.0857864376269,0.785398163397448);
#25=CONICAL_SURFACE('',#350,11.0857864376269,0.785398163397448);
#26=CONICAL_SURFACE('',#354,7.71715728752538,0.785398163397448);
#27=CONICAL_SURFACE('',#357,12.5,0.785398163397446);
#28=CONICAL_SURFACE('',#360,4.40240233881065,0.0312094049979787);
#29=CONICAL_SURFACE('',#364,4.81965111616487,0.785398163397448);
#30=CONICAL_SURFACE('',#368,7.21715728752538,0.785398163397448);
#31=CONICAL_SURFACE('',#378,5.45466392515021,0.785398163397448);
#32=CONICAL_SURFACE('',#380,4.81965111616487,0.0312094049979787);
#33=PLANE('',#345);
#34=PLANE('',#351);
#35=PLANE('',#359);
#36=PLANE('',#366);
#37=PLANE('',#372);
#38=PLANE('',#374);
#39=PLANE('',#375);
#40=PLANE('',#376);
#41=PLANE('',#377);
#42=PLANE('',#382);
#43=LINE('',#509,#51);
#44=LINE('',#514,#52);
#45=LINE('',#518,#53);
#46=LINE('',#522,#54);
#47=LINE('',#529,#55);
#48=LINE('',#533,#56);
#49=LINE('',#608,#57);
#50=LINE('',#611,#58);
#51=VECTOR('',#390,1000.);
#52=VECTOR('',#393,1000.);
#53=VECTOR('',#396,1000.);
#54=VECTOR('',#399,1000.);
#55=VECTOR('',#406,1000.);
#56=VECTOR('',#409,1000.);
#57=VECTOR('',#464,1000.);
#58=VECTOR('',#469,1000.);
#59=B_SPLINE_CURVE_WITH_KNOTS('',3,(#488,#489,#490,#491,#492,#493,#494,
#495,#496,#497,#498,#499,#500,#501,#502,#503,#504,#505,#506,#507),
 .UNSPECIFIED.,.T.,.F.,(1,1,1,1,1,1,1,1,1,1,1,1,1,1,1,1,1,1,1,1,1,1,1,1),
(-0.00643047453154864,-0.00321523726577432,-0.00160761863288716,0.,0.00321523726577432,
0.00643047453154864,0.00964571179732297,0.0128609490630973,0.0160761863288716,
0.0192914235946459,0.0225066608604203,0.0257218981261946,0.0289371353919689,
0.0321523726577432,0.0353676099235175,0.0385828471892919,0.0417980844550662,
0.0450133217208405,0.0482285589866148,0.049836177619502,0.0514437962523892,
0.0546590335181635,0.0578742707839378,0.0610895080497121),.UNSPECIFIED.);
#60=B_SPLINE_CURVE_WITH_KNOTS('',3,(#537,#538,#539,#540),.UNSPECIFIED.,
 .F.,.F.,(4,4),(1.60839638509885E-6,0.00477499739724769),.UNSPECIFIED.);
#61=B_SPLINE_CURVE_WITH_KNOTS('',3,(#541,#542,#543,#544),.UNSPECIFIED.,
 .F.,.F.,(4,4),(0.00750064664027511,0.0122264888025213),.UNSPECIFIED.);
#62=B_SPLINE_CURVE_WITH_KNOTS('',3,(#546,#547,#548,#549),.UNSPECIFIED.,
 .F.,.F.,(4,4),(1.60839638510052E-6,0.00477499739724769),.UNSPECIFIED.);
#63=B_SPLINE_CURVE_WITH_KNOTS('',3,(#550,#551,#552,#553),.UNSPECIFIED.,
 .F.,.F.,(4,4),(0.00750064664027511,0.0122264888025213),.UNSPECIFIED.);
#64=B_SPLINE_CURVE_WITH_KNOTS('',3,(#570,#571,#572,#573,#574,#575,#576,
#577,#578,#579,#580,#581,#582,#583,#584,#585,#586,#587,#588),
 .UNSPECIFIED.,.T.,.F.,(1,1,1,1,1,1,1,1,1,1,1,1,1,1,1,1,1,1,1,1,1,1,1),
(-0.00526328820924003,-0.00350885880616002,-0.00175442940308001,0.,0.00175442940308001,
0.00350885880616002,0.00526328820924002,0.00701771761232003,0.00877214701540004,
0.01052657641848,0.0122810058215601,0.0140354352246401,0.0157898646277201,
0.0175442940308001,0.0192987234338801,0.0210531528369601,0.0228075822400401,
0.0245620116431201,0.0263164410462001,0.0280708704492801,0.0298252998523601,
0.0315797292554401,0.0333341586585202),.UNSPECIFIED.);
#65=ORIENTED_EDGE('',*,*,#133,.F.);
#66=ORIENTED_EDGE('',*,*,#134,.F.);
#67=ORIENTED_EDGE('',*,*,#135,.F.);
#68=ORIENTED_EDGE('',*,*,#136,.T.);
#69=ORIENTED_EDGE('',*,*,#137,.F.);
#70=ORIENTED_EDGE('',*,*,#138,.T.);
#71=ORIENTED_EDGE('',*,*,#139,.F.);
#72=ORIENTED_EDGE('',*,*,#140,.T.);
#73=ORIENTED_EDGE('',*,*,#141,.F.);
#74=ORIENTED_EDGE('',*,*,#142,.T.);
#75=ORIENTED_EDGE('',*,*,#143,.F.);
#76=ORIENTED_EDGE('',*,*,#144,.F.);
#77=ORIENTED_EDGE('',*,*,#145,.F.);
#78=ORIENTED_EDGE('',*,*,#146,.F.);
#79=ORIENTED_EDGE('',*,*,#147,.T.);
#80=ORIENTED_EDGE('',*,*,#148,.F.);
#81=ORIENTED_EDGE('',*,*,#140,.F.);
#82=ORIENTED_EDGE('',*,*,#149,.F.);
#83=ORIENTED_EDGE('',*,*,#145,.T.);
#84=ORIENTED_EDGE('',*,*,#150,.F.);
#85=ORIENTED_EDGE('',*,*,#136,.F.);
#86=ORIENTED_EDGE('',*,*,#151,.F.);
#87=ORIENTED_EDGE('',*,*,#143,.T.);
#88=ORIENTED_EDGE('',*,*,#152,.F.);
#89=ORIENTED_EDGE('',*,*,#153,.T.);
#90=ORIENTED_EDGE('',*,*,#154,.F.);
#91=ORIENTED_EDGE('',*,*,#152,.T.);
#92=ORIENTED_EDGE('',*,*,#147,.F.);
#93=ORIENTED_EDGE('',*,*,#154,.T.);
#94=ORIENTED_EDGE('',*,*,#155,.F.);
#95=ORIENTED_EDGE('',*,*,#133,.T.);
#96=ORIENTED_EDGE('',*,*,#155,.T.);
#97=ORIENTED_EDGE('',*,*,#156,.F.);
#98=ORIENTED_EDGE('',*,*,#157,.T.);
#99=ORIENTED_EDGE('',*,*,#134,.T.);
#100=ORIENTED_EDGE('',*,*,#158,.T.);
#101=ORIENTED_EDGE('',*,*,#159,.F.);
#102=ORIENTED_EDGE('',*,*,#156,.T.);
#103=ORIENTED_EDGE('',*,*,#160,.F.);
#104=ORIENTED_EDGE('',*,*,#159,.T.);
#105=ORIENTED_EDGE('',*,*,#161,.F.);
#106=ORIENTED_EDGE('',*,*,#160,.T.);
#107=ORIENTED_EDGE('',*,*,#162,.F.);
#108=ORIENTED_EDGE('',*,*,#161,.T.);
#109=ORIENTED_EDGE('',*,*,#158,.F.);
#110=ORIENTED_EDGE('',*,*,#162,.T.);
#111=ORIENTED_EDGE('',*,*,#157,.F.);
#112=ORIENTED_EDGE('',*,*,#137,.T.);
#113=ORIENTED_EDGE('',*,*,#150,.T.);
#114=ORIENTED_EDGE('',*,*,#146,.T.);
#115=ORIENTED_EDGE('',*,*,#149,.T.);
#116=ORIENTED_EDGE('',*,*,#139,.T.);
#117=ORIENTED_EDGE('',*,*,#163,.T.);
#118=ORIENTED_EDGE('',*,*,#163,.F.);
#119=ORIENTED_EDGE('',*,*,#138,.F.);
#120=ORIENTED_EDGE('',*,*,#164,.F.);
#121=ORIENTED_EDGE('',*,*,#142,.F.);
#122=ORIENTED_EDGE('',*,*,#141,.T.);
#123=ORIENTED_EDGE('',*,*,#148,.T.);
#124=ORIENTED_EDGE('',*,*,#144,.T.);
#125=ORIENTED_EDGE('',*,*,#151,.T.);
#126=ORIENTED_EDGE('',*,*,#135,.T.);
#127=ORIENTED_EDGE('',*,*,#164,.T.);
#128=ORIENTED_EDGE('',*,*,#165,.T.);
#129=ORIENTED_EDGE('',*,*,#153,.F.);
#130=ORIENTED_EDGE('',*,*,#166,.T.);
#131=ORIENTED_EDGE('',*,*,#165,.F.);
#132=ORIENTED_EDGE('',*,*,#166,.F.);
#133=EDGE_CURVE('',#167,#167,#195,.T.);
#134=EDGE_CURVE('',#168,#168,#59,.T.);
#135=EDGE_CURVE('',#169,#170,#43,.T.);
#136=EDGE_CURVE('',#169,#171,#196,.T.);
#137=EDGE_CURVE('',#172,#171,#44,.F.);
#138=EDGE_CURVE('',#172,#173,#197,.T.);
#139=EDGE_CURVE('',#174,#173,#45,.T.);
#140=EDGE_CURVE('',#174,#175,#198,.T.);
#141=EDGE_CURVE('',#176,#175,#46,.F.);
#142=EDGE_CURVE('',#176,#170,#199,.T.);
#143=EDGE_CURVE('',#177,#178,#200,.T.);
#144=EDGE_CURVE('',#179,#177,#47,.T.);
#145=EDGE_CURVE('',#180,#179,#201,.T.);
#146=EDGE_CURVE('',#178,#180,#48,.T.);
#147=EDGE_CURVE('',#181,#181,#202,.T.);
#148=EDGE_CURVE('',#175,#179,#60,.T.);
#149=EDGE_CURVE('',#180,#174,#61,.T.);
#150=EDGE_CURVE('',#171,#178,#62,.T.);
#151=EDGE_CURVE('',#177,#169,#63,.T.);
#152=EDGE_CURVE('',#182,#182,#203,.T.);
#153=EDGE_CURVE('',#183,#183,#204,.T.);
#154=EDGE_CURVE('',#184,#184,#205,.T.);
#155=EDGE_CURVE('',#185,#185,#206,.T.);
#156=EDGE_CURVE('',#186,#186,#207,.T.);
#157=EDGE_CURVE('',#187,#187,#64,.T.);
#158=EDGE_CURVE('',#188,#188,#208,.T.);
#159=EDGE_CURVE('',#189,#189,#209,.T.);
#160=EDGE_CURVE('',#190,#190,#210,.T.);
#161=EDGE_CURVE('',#191,#191,#211,.T.);
#162=EDGE_CURVE('',#192,#192,#212,.T.);
#163=EDGE_CURVE('',#173,#172,#49,.T.);
#164=EDGE_CURVE('',#170,#176,#50,.T.);
#165=EDGE_CURVE('',#193,#193,#213,.T.);
#166=EDGE_CURVE('',#194,#194,#214,.T.);
#167=VERTEX_POINT('',#487);
#168=VERTEX_POINT('',#508);
#169=VERTEX_POINT('',#510);
#170=VERTEX_POINT('',#511);
#171=VERTEX_POINT('',#513);
#172=VERTEX_POINT('',#515);
#173=VERTEX_POINT('',#517);
#174=VERTEX_POINT('',#519);
#175=VERTEX_POINT('',#521);
#176=VERTEX_POINT('',#523);
#177=VERTEX_POINT('',#527);
#178=VERTEX_POINT('',#528);
#179=VERTEX_POINT('',#530);
#180=VERTEX_POINT('',#532);
#181=VERTEX_POINT('',#535);
#182=VERTEX_POINT('',#556);
#183=VERTEX_POINT('',#558);
#184=VERTEX_POINT('',#561);
#185=VERTEX_POINT('',#565);
#186=VERTEX_POINT('',#569);
#187=VERTEX_POINT('',#589);
#188=VERTEX_POINT('',#592);
#189=VERTEX_POINT('',#595);
#190=VERTEX_POINT('',#598);
#191=VERTEX_POINT('',#601);
#192=VERTEX_POINT('',#604);
#193=VERTEX_POINT('',#615);
#194=VERTEX_POINT('',#618);
#195=CIRCLE('',#340,12.5);
#196=CIRCLE('',#341,12.5);
#197=CIRCLE('',#342,12.5);
#198=CIRCLE('',#343,12.5);
#199=CIRCLE('',#344,12.5);
#200=CIRCLE('',#346,11.0857864376269);
#201=CIRCLE('',#347,11.0857864376269);
#202=CIRCLE('',#348,8.);
#203=CIRCLE('',#352,7.71715728752538);
#204=CIRCLE('',#353,5.45466392515021);
#205=CIRCLE('',#355,8.);
#206=CIRCLE('',#358,11.7928932188135);
#207=CIRCLE('',#361,4.81965111616487);
#208=CIRCLE('',#363,8.);
#209=CIRCLE('',#365,5.45466392515022);
#210=CIRCLE('',#367,7.21715728752538);
#211=CIRCLE('',#369,7.5);
#212=CIRCLE('',#371,7.5);
#213=CIRCLE('',#379,4.81965111616487);
#214=CIRCLE('',#381,4.40240233881065);
#215=EDGE_LOOP('',(#65));
#216=EDGE_LOOP('',(#66));
#217=EDGE_LOOP('',(#67,#68,#69,#70,#71,#72,#73,#74));
#218=EDGE_LOOP('',(#75,#76,#77,#78));
#219=EDGE_LOOP('',(#79));
#220=EDGE_LOOP('',(#80,#81,#82,#83));
#221=EDGE_LOOP('',(#84,#85,#86,#87));
#222=EDGE_LOOP('',(#88));
#223=EDGE_LOOP('',(#89));
#224=EDGE_LOOP('',(#90));
#225=EDGE_LOOP('',(#91));
#226=EDGE_LOOP('',(#92));
#227=EDGE_LOOP('',(#93));
#228=EDGE_LOOP('',(#94));
#229=EDGE_LOOP('',(#95));
#230=EDGE_LOOP('',(#96));
#231=EDGE_LOOP('',(#97));
#232=EDGE_LOOP('',(#98));
#233=EDGE_LOOP('',(#99));
#234=EDGE_LOOP('',(#100));
#235=EDGE_LOOP('',(#101));
#236=EDGE_LOOP('',(#102));
#237=EDGE_LOOP('',(#103));
#238=EDGE_LOOP('',(#104));
#239=EDGE_LOOP('',(#105));
#240=EDGE_LOOP('',(#106));
#241=EDGE_LOOP('',(#107));
#242=EDGE_LOOP('',(#108));
#243=EDGE_LOOP('',(#109));
#244=EDGE_LOOP('',(#110));
#245=EDGE_LOOP('',(#111));
#246=EDGE_LOOP('',(#112,#113,#114,#115,#116,#117));
#247=EDGE_LOOP('',(#118,#119));
#248=EDGE_LOOP('',(#120,#121));
#249=EDGE_LOOP('',(#122,#123,#124,#125,#126,#127));
#250=EDGE_LOOP('',(#128));
#251=EDGE_LOOP('',(#129));
#252=EDGE_LOOP('',(#130));
#253=EDGE_LOOP('',(#131));
#254=EDGE_LOOP('',(#132));
#255=FACE_BOUND('',#215,.T.);
#256=FACE_BOUND('',#216,.T.);
#257=FACE_BOUND('',#217,.T.);
#258=FACE_BOUND('',#218,.T.);
#259=FACE_BOUND('',#219,.T.);
#260=FACE_BOUND('',#220,.T.);
#261=FACE_BOUND('',#221,.T.);
#262=FACE_BOUND('',#222,.T.);
#263=FACE_BOUND('',#223,.T.);
#264=FACE_BOUND('',#224,.T.);
#265=FACE_BOUND('',#225,.T.);
#266=FACE_BOUND('',#226,.T.);
#267=FACE_BOUND('',#227,.T.);
#268=FACE_BOUND('',#228,.T.);
#269=FACE_BOUND('',#229,.T.);
#270=FACE_BOUND('',#230,.T.);
#271=FACE_BOUND('',#231,.T.);
#272=FACE_BOUND('',#232,.T.);
#273=FACE_BOUND('',#233,.T.);
#274=FACE_BOUND('',#234,.T.);
#275=FACE_BOUND('',#235,.T.);
#276=FACE_BOUND('',#236,.T.);
#277=FACE_BOUND('',#237,.T.);
#278=FACE_BOUND('',#238,.T.);
#279=FACE_BOUND('',#239,.T.);
#280=FACE_BOUND('',#240,.T.);
#281=FACE_BOUND('',#241,.T.);
#282=FACE_BOUND('',#242,.T.);
#283=FACE_BOUND('',#243,.T.);
#284=FACE_BOUND('',#244,.T.);
#285=FACE_BOUND('',#245,.T.);
#286=FACE_BOUND('',#246,.T.);
#287=FACE_BOUND('',#247,.T.);
#288=FACE_BOUND('',#248,.T.);
#289=FACE_BOUND('',#249,.T.);
#290=FACE_BOUND('',#250,.T.);
#291=FACE_BOUND('',#251,.T.);
#292=FACE_BOUND('',#252,.T.);
#293=FACE_BOUND('',#253,.T.);
#294=FACE_BOUND('',#254,.T.);
#295=CYLINDRICAL_SURFACE('',#339,12.5);
#296=CYLINDRICAL_SURFACE('',#356,8.);
#297=CYLINDRICAL_SURFACE('',#362,8.);
#298=CYLINDRICAL_SURFACE('',#370,7.5);
#299=CYLINDRICAL_SURFACE('',#373,12.5);
#300=ADVANCED_FACE('',(#255,#256,#257),#295,.T.);
#301=ADVANCED_FACE('',(#258,#259),#33,.F.);
#302=ADVANCED_FACE('',(#260),#24,.T.);
#303=ADVANCED_FACE('',(#261),#25,.T.);
#304=ADVANCED_FACE('',(#262,#263),#34,.F.);
#305=ADVANCED_FACE('',(#264,#265),#26,.T.);
#306=ADVANCED_FACE('',(#266,#267),#296,.T.);
#307=ADVANCED_FACE('',(#268,#269),#27,.T.);
#308=ADVANCED_FACE('',(#270),#35,.F.);
#309=ADVANCED_FACE('',(#271,#272),#28,.F.);
#310=ADVANCED_FACE('',(#273,#274),#297,.T.);
#311=ADVANCED_FACE('',(#275,#276),#29,.F.);
#312=ADVANCED_FACE('',(#277,#278),#36,.F.);
#313=ADVANCED_FACE('',(#279,#280),#30,.T.);
#314=ADVANCED_FACE('',(#281,#282),#298,.T.);
#315=ADVANCED_FACE('',(#283,#284),#37,.F.);
#316=ADVANCED_FACE('',(#285),#299,.T.);
#317=ADVANCED_FACE('',(#286),#38,.T.);
#318=ADVANCED_FACE('',(#287),#39,.F.);
#319=ADVANCED_FACE('',(#288),#40,.F.);
#320=ADVANCED_FACE('',(#289),#41,.T.);
#321=ADVANCED_FACE('',(#290,#291),#31,.F.);
#322=ADVANCED_FACE('',(#292,#293),#32,.F.);
#323=ADVANCED_FACE('',(#294),#42,.T.);
#324=CLOSED_SHELL('',(#300,#301,#302,#303,#304,#305,#306,#307,#308,#309,
#310,#311,#312,#313,#314,#315,#316,#317,#318,#319,#320,#321,#322,#323));
#325=STYLED_ITEM('',(#326),#333);
#326=PRESENTATION_STYLE_ASSIGNMENT((#327));
#327=SURFACE_STYLE_USAGE(.BOTH.,#328);
#328=SURFACE_SIDE_STYLE('',(#329));
#329=SURFACE_STYLE_FILL_AREA(#330);
#330=FILL_AREA_STYLE('',(#331));
#331=FILL_AREA_STYLE_COLOUR('',#332);
#332=COLOUR_RGB('',0.689999997615814,0.689999997615814,0.689999997615814);
#333=MANIFOLD_SOLID_BREP('9798 SEU-1/8-NPT---(geh)',#324);
#334=SHAPE_DEFINITION_REPRESENTATION(#629,#336);
#335=SHAPE_DEFINITION_REPRESENTATION(#630,#337);
#336=SHAPE_REPRESENTATION('9798 SEU-1/8-NPT',(#338,#383),#622);
#337=SHAPE_REPRESENTATION('9798 SEU-1/8-NPT---(geh)',(#338),#623);
#338=AXIS2_PLACEMENT_3D('',#484,#384,#385);
#339=AXIS2_PLACEMENT_3D('',#485,#386,#387);
#340=AXIS2_PLACEMENT_3D('',#486,#388,#389);
#341=AXIS2_PLACEMENT_3D('',#512,#391,#392);
#342=AXIS2_PLACEMENT_3D('',#516,#394,#395);
#343=AXIS2_PLACEMENT_3D('',#520,#397,#398);
#344=AXIS2_PLACEMENT_3D('',#524,#400,#401);
#345=AXIS2_PLACEMENT_3D('',#525,#402,#403);
#346=AXIS2_PLACEMENT_3D('',#526,#404,#405);
#347=AXIS2_PLACEMENT_3D('',#531,#407,#408);
#348=AXIS2_PLACEMENT_3D('',#534,#410,#411);
#349=AXIS2_PLACEMENT_3D('',#536,#412,#413);
#350=AXIS2_PLACEMENT_3D('',#545,#414,#415);
#351=AXIS2_PLACEMENT_3D('',#554,#416,#417);
#352=AXIS2_PLACEMENT_3D('',#555,#418,#419);
#353=AXIS2_PLACEMENT_3D('',#557,#420,#421);
#354=AXIS2_PLACEMENT_3D('',#559,#422,#423);
#355=AXIS2_PLACEMENT_3D('',#560,#424,#425);
#356=AXIS2_PLACEMENT_3D('',#562,#426,#427);
#357=AXIS2_PLACEMENT_3D('',#563,#428,#429);
#358=AXIS2_PLACEMENT_3D('',#564,#430,#431);
#359=AXIS2_PLACEMENT_3D('',#566,#432,#433);
#360=AXIS2_PLACEMENT_3D('',#567,#434,#435);
#361=AXIS2_PLACEMENT_3D('',#568,#436,#437);
#362=AXIS2_PLACEMENT_3D('',#590,#438,#439);
#363=AXIS2_PLACEMENT_3D('',#591,#440,#441);
#364=AXIS2_PLACEMENT_3D('',#593,#442,#443);
#365=AXIS2_PLACEMENT_3D('',#594,#444,#445);
#366=AXIS2_PLACEMENT_3D('',#596,#446,#447);
#367=AXIS2_PLACEMENT_3D('',#597,#448,#449);
#368=AXIS2_PLACEMENT_3D('',#599,#450,#451);
#369=AXIS2_PLACEMENT_3D('',#600,#452,#453);
#370=AXIS2_PLACEMENT_3D('',#602,#454,#455);
#371=AXIS2_PLACEMENT_3D('',#603,#456,#457);
#372=AXIS2_PLACEMENT_3D('',#605,#458,#459);
#373=AXIS2_PLACEMENT_3D('',#606,#460,#461);
#374=AXIS2_PLACEMENT_3D('',#607,#462,#463);
#375=AXIS2_PLACEMENT_3D('',#609,#465,#466);
#376=AXIS2_PLACEMENT_3D('',#610,#467,#468);
#377=AXIS2_PLACEMENT_3D('',#612,#470,#471);
#378=AXIS2_PLACEMENT_3D('',#613,#472,#473);
#379=AXIS2_PLACEMENT_3D('',#614,#474,#475);
#380=AXIS2_PLACEMENT_3D('',#616,#476,#477);
#381=AXIS2_PLACEMENT_3D('',#617,#478,#479);
#382=AXIS2_PLACEMENT_3D('',#619,#480,#481);
#383=AXIS2_PLACEMENT_3D('',#620,#482,#483);
#384=DIRECTION('',(0.,0.,1.));
#385=DIRECTION('',(1.,0.,0.));
#386=DIRECTION('',(0.,1.,0.));
#387=DIRECTION('',(0.,0.,1.));
#388=DIRECTION('',(0.,1.,0.));
#389=DIRECTION('',(0.,0.,1.));
#390=DIRECTION('',(0.,1.,0.));
#391=DIRECTION('',(0.,1.,0.));
#392=DIRECTION('',(0.,0.,1.));
#393=DIRECTION('',(0.,1.,0.));
#394=DIRECTION('',(0.,1.,0.));
#395=DIRECTION('',(0.,0.,1.));
#396=DIRECTION('',(0.,1.,0.));
#397=DIRECTION('',(0.,1.,0.));
#398=DIRECTION('',(0.,0.,1.));
#399=DIRECTION('',(0.,1.,0.));
#400=DIRECTION('',(0.,1.,0.));
#401=DIRECTION('',(0.,0.,1.));
#402=DIRECTION('',(0.,1.,0.));
#403=DIRECTION('',(0.,0.,1.));
#404=DIRECTION('',(0.,1.,0.));
#405=DIRECTION('',(0.,0.,1.));
#406=DIRECTION('',(-1.,0.,0.));
#407=DIRECTION('',(0.,1.,0.));
#408=DIRECTION('',(0.,0.,1.));
#409=DIRECTION('',(1.,0.,0.));
#410=DIRECTION('',(0.,1.,0.));
#411=DIRECTION('',(0.,0.,1.));
#412=DIRECTION('',(0.,1.,0.));
#413=DIRECTION('',(0.,0.,1.));
#414=DIRECTION('',(0.,1.,0.));
#415=DIRECTION('',(0.,0.,1.));
#416=DIRECTION('',(0.,1.,0.));
#417=DIRECTION('',(0.,0.,1.));
#418=DIRECTION('',(0.,1.,0.));
#419=DIRECTION('',(0.,0.,1.));
#420=DIRECTION('',(0.,1.,0.));
#421=DIRECTION('',(0.,0.,1.));
#422=DIRECTION('',(0.,1.,0.));
#423=DIRECTION('',(0.,0.,1.));
#424=DIRECTION('',(0.,1.,0.));
#425=DIRECTION('',(0.,0.,1.));
#426=DIRECTION('',(0.,1.,0.));
#427=DIRECTION('',(0.,0.,1.));
#428=DIRECTION('',(0.,-1.,0.));
#429=DIRECTION('',(0.,0.,-1.));
#430=DIRECTION('',(0.,1.,0.));
#431=DIRECTION('',(0.,0.,1.));
#432=DIRECTION('',(0.,-1.,0.));
#433=DIRECTION('',(0.,0.,-1.));
#434=DIRECTION('',(-1.,0.,0.));
#435=DIRECTION('',(0.,0.,1.));
#436=DIRECTION('',(1.,0.,0.));
#437=DIRECTION('',(0.,0.,-1.));
#438=DIRECTION('',(1.,0.,0.));
#439=DIRECTION('',(0.,0.,-1.));
#440=DIRECTION('',(1.,0.,0.));
#441=DIRECTION('',(0.,0.,-1.));
#442=DIRECTION('',(-1.,0.,0.));
#443=DIRECTION('',(0.,0.,1.));
#444=DIRECTION('',(1.,0.,0.));
#445=DIRECTION('',(0.,0.,-1.));
#446=DIRECTION('',(1.,0.,0.));
#447=DIRECTION('',(0.,0.,-1.));
#448=DIRECTION('',(1.,0.,0.));
#449=DIRECTION('',(0.,0.,-1.));
#450=DIRECTION('',(1.,0.,0.));
#451=DIRECTION('',(0.,0.,-1.));
#452=DIRECTION('',(1.,0.,0.));
#453=DIRECTION('',(0.,0.,-1.));
#454=DIRECTION('',(1.,0.,0.));
#455=DIRECTION('',(0.,0.,-1.));
#456=DIRECTION('',(1.,0.,0.));
#457=DIRECTION('',(0.,0.,-1.));
#458=DIRECTION('',(1.,0.,0.));
#459=DIRECTION('',(0.,0.,-1.));
#460=DIRECTION('',(0.,1.,0.));
#461=DIRECTION('',(0.,0.,1.));
#462=DIRECTION('',(0.,0.,1.));
#463=DIRECTION('',(1.,0.,0.));
#464=DIRECTION('',(-1.,0.,0.));
#465=DIRECTION('',(0.,1.,0.));
#466=DIRECTION('',(0.,0.,1.));
#467=DIRECTION('',(0.,1.,0.));
#468=DIRECTION('',(0.,0.,1.));
#469=DIRECTION('',(1.,0.,0.));
#470=DIRECTION('',(0.,0.,-1.));
#471=DIRECTION('',(-1.,0.,0.));
#472=DIRECTION('',(0.,-1.,0.));
#473=DIRECTION('',(0.,0.,-1.));
#474=DIRECTION('',(0.,1.,0.));
#475=DIRECTION('',(0.,0.,1.));
#476=DIRECTION('',(0.,-1.,0.));
#477=DIRECTION('',(0.,0.,-1.));
#478=DIRECTION('',(0.,1.,0.));
#479=DIRECTION('',(0.,0.,1.));
#480=DIRECTION('',(0.,-1.,0.));
#481=DIRECTION('',(0.,0.,-1.));
#482=DIRECTION('',(1.,0.,0.));
#483=DIRECTION('',(0.,0.,-1.));
#484=CARTESIAN_POINT('',(0.,0.,0.));
#485=CARTESIAN_POINT('',(0.,35.5,0.));
#486=CARTESIAN_POINT('',(0.,34.7928932188135,0.));
#487=CARTESIAN_POINT('',(0.,34.7928932188135,12.5));
#488=CARTESIAN_POINT('',(-9.70105128735878,26.1363798372818,-7.88656723104983));
#489=CARTESIAN_POINT('',(-9.50719300242374,23.9476255584332,-8.11316657218038));
#490=CARTESIAN_POINT('',(-10.0003018836315,21.2894707876924,-7.54866469512747));
#491=CARTESIAN_POINT('',(-11.154589504268,18.7337781441297,-5.81678433592009));
#492=CARTESIAN_POINT('',(-12.195112302925,16.9659481975191,-3.25647179082749));
#493=CARTESIAN_POINT('',(-12.6480398708234,16.2741694452701,-0.0437443297100886));
#494=CARTESIAN_POINT('',(-12.2123825738642,16.9379140855648,3.20375223197304));
#495=CARTESIAN_POINT('',(-11.1697827263483,18.7074352720226,5.78825650496611));
#496=CARTESIAN_POINT('',(-10.0179050960144,21.2342523198393,7.52728446087602));
#497=CARTESIAN_POINT('',(-9.40505332734708,24.4613055705156,8.2275115612737));
#498=CARTESIAN_POINT('',(-9.99046835825787,27.6881197683144,7.56210666180718));
#499=CARTESIAN_POINT('',(-11.1478863723354,30.2535543222849,5.82933677668088));
#500=CARTESIAN_POINT('',(-12.194392932622,32.0332302636627,3.26599245087618));
#501=CARTESIAN_POINT('',(-12.6485389505112,32.7268451543669,0.0279764551309553));
#502=CARTESIAN_POINT('',(-12.2112580172117,32.0590871681193,-3.20764205017763));
#503=CARTESIAN_POINT('',(-11.1614965831145,30.2833749476928,-5.80496456039903));
#504=CARTESIAN_POINT('',(-10.2018126097749,28.1490500171696,-7.25079264834156));
#505=CARTESIAN_POINT('',(-9.70105128735878,26.1363798372818,-7.88656723104983));
#506=CARTESIAN_POINT('',(-9.50719300242374,23.9476255584332,-8.11316657218038));
#507=CARTESIAN_POINT('',(-10.0003018836315,21.2894707876924,-7.54866469512747));
#508=CARTESIAN_POINT('',(-9.60468635614927,24.5,-8.));
#509=CARTESIAN_POINT('',(-5.93717104351896,35.5,-11.));
#510=CARTESIAN_POINT('',(-5.93717104351896,10.9142135623731,-11.));
#511=CARTESIAN_POINT('',(-5.93717104351896,22.,-11.));
#512=CARTESIAN_POINT('',(0.,10.9142135623731,0.));
#513=CARTESIAN_POINT('',(-5.93717104351896,10.9142135623731,11.));
#514=CARTESIAN_POINT('',(-5.93717104351896,35.5,11.));
#515=CARTESIAN_POINT('',(-5.93717104351896,22.,11.));
#516=CARTESIAN_POINT('',(0.,22.,0.));
#517=CARTESIAN_POINT('',(5.93717104351896,22.,11.));
#518=CARTESIAN_POINT('',(5.93717104351896,35.5,11.));
#519=CARTESIAN_POINT('',(5.93717104351896,10.9142135623731,11.));
#520=CARTESIAN_POINT('',(0.,10.9142135623731,0.));
#521=CARTESIAN_POINT('',(5.93717104351896,10.9142135623731,-11.));
#522=CARTESIAN_POINT('',(5.93717104351896,35.5,-11.));
#523=CARTESIAN_POINT('',(5.93717104351896,22.,-11.));
#524=CARTESIAN_POINT('',(0.,22.,0.));
#525=CARTESIAN_POINT('',(-8.,9.5,0.));
#526=CARTESIAN_POINT('',(0.,9.5,0.));
#527=CARTESIAN_POINT('',(-1.37646683239104,9.5,-11.));
#528=CARTESIAN_POINT('',(-1.37646683239104,9.5,11.));
#529=CARTESIAN_POINT('',(-8.,9.5,-11.));
#530=CARTESIAN_POINT('',(1.37646683239104,9.5,-11.));
#531=CARTESIAN_POINT('',(0.,9.5,0.));
#532=CARTESIAN_POINT('',(1.37646683239104,9.5,11.));
#533=CARTESIAN_POINT('',(-8.,9.5,11.));
#534=CARTESIAN_POINT('',(0.,9.5,0.));
#535=CARTESIAN_POINT('',(0.,9.5,8.));
#536=CARTESIAN_POINT('',(0.,9.5,0.));
#537=CARTESIAN_POINT('',(5.93717104351896,10.9142135623731,-11.));
#538=CARTESIAN_POINT('',(4.47935011765299,10.2217869873581,-11.));
#539=CARTESIAN_POINT('',(2.97381305818952,9.69833451708883,-11.));
#540=CARTESIAN_POINT('',(1.37646683239104,9.5,-11.));
#541=CARTESIAN_POINT('',(1.37646683239104,9.5,11.));
#542=CARTESIAN_POINT('',(2.94894494649354,9.69524676764261,11.));
#543=CARTESIAN_POINT('',(4.48686889883659,10.2253582105522,11.));
#544=CARTESIAN_POINT('',(5.93717104351896,10.9142135623731,11.));
#545=CARTESIAN_POINT('',(0.,9.5,0.));
#546=CARTESIAN_POINT('',(-5.93717104351896,10.9142135623731,11.));
#547=CARTESIAN_POINT('',(-4.47935011765299,10.2217869873581,11.));
#548=CARTESIAN_POINT('',(-2.97381305818952,9.69833451708883,11.));
#549=CARTESIAN_POINT('',(-1.37646683239104,9.5,11.));
#550=CARTESIAN_POINT('',(-1.37646683239104,9.50000000000001,-11.));
#551=CARTESIAN_POINT('',(-2.94894494649355,9.69524676764261,-11.));
#552=CARTESIAN_POINT('',(-4.48686889883659,10.2253582105522,-11.));
#553=CARTESIAN_POINT('',(-5.93717104351896,10.9142135623731,-11.));
#554=CARTESIAN_POINT('',(0.,0.,0.));
#555=CARTESIAN_POINT('',(0.,0.,0.));
#556=CARTESIAN_POINT('',(0.,0.,7.71715728752538));
#557=CARTESIAN_POINT('',(0.,0.,0.));
#558=CARTESIAN_POINT('',(0.,0.,5.45466392515021));
#559=CARTESIAN_POINT('',(0.,0.,0.));
#560=CARTESIAN_POINT('',(0.,0.282842712474619,0.));
#561=CARTESIAN_POINT('',(0.,0.282842712474619,8.));
#562=CARTESIAN_POINT('',(0.,35.5,0.));
#563=CARTESIAN_POINT('',(0.,34.7928932188135,0.));
#564=CARTESIAN_POINT('',(0.,35.5,0.));
#565=CARTESIAN_POINT('',(0.,35.5,11.7928932188135));
#566=CARTESIAN_POINT('',(-11.7928932188135,35.5,0.));
#567=CARTESIAN_POINT('',(-10.5,24.5,0.));
#568=CARTESIAN_POINT('',(-23.8649871910147,24.5,0.));
#569=CARTESIAN_POINT('',(-23.8649871910147,24.5,-4.81965111616487));
#570=CARTESIAN_POINT('',(-12.3940157843376,20.327552946498,-1.88198441290395));
#571=CARTESIAN_POINT('',(-12.0736589152187,21.3621478826629,-3.31545463919184));
#572=CARTESIAN_POINT('',(-11.7594321813851,22.863143633789,-4.25401079460417));
#573=CARTESIAN_POINT('',(-11.6394436862295,24.633139713924,-4.55464022227208));
#574=CARTESIAN_POINT('',(-11.7976817936885,26.3806708050498,-4.15264906249504));
#575=CARTESIAN_POINT('',(-12.1248435323849,27.8222076279382,-3.1326221255106));
#576=CARTESIAN_POINT('',(-12.4298581522308,28.7742646433084,-1.64159897001631));
#577=CARTESIAN_POINT('',(-12.5430568766167,29.0828137675413,0.132164474743432));
#578=CARTESIAN_POINT('',(-12.3939724878475,28.672367908509,1.88187701116293));
#579=CARTESIAN_POINT('',(-12.0737464400074,27.6379403707753,3.31503775643276));
#580=CARTESIAN_POINT('',(-11.7600785854335,26.1403866012899,4.25222528530421));
#581=CARTESIAN_POINT('',(-11.6391973092387,24.3708201155042,4.55529882200696));
#582=CARTESIAN_POINT('',(-11.7978345220407,22.617181995826,4.15229096931276));
#583=CARTESIAN_POINT('',(-12.1255447881321,21.1754540821303,3.13028333160506));
#584=CARTESIAN_POINT('',(-12.4301803313571,20.2248305293223,1.63828998393872));
#585=CARTESIAN_POINT('',(-12.5429649987477,19.9174336668891,-0.131360011880153));
#586=CARTESIAN_POINT('',(-12.3940157843376,20.327552946498,-1.88198441290395));
#587=CARTESIAN_POINT('',(-12.0736589152187,21.3621478826629,-3.31545463919184));
#588=CARTESIAN_POINT('',(-11.7594321813851,22.863143633789,-4.25401079460417));
#589=CARTESIAN_POINT('',(-12.0746806044329,21.4398813518231,-3.23296896071258));
#590=CARTESIAN_POINT('',(3.5527136788005E-15,24.5,0.));
#591=CARTESIAN_POINT('',(-21.,24.5,0.));
#592=CARTESIAN_POINT('',(-21.,24.5,-8.));
#593=CARTESIAN_POINT('',(-23.8649871910147,24.5,0.));
#594=CARTESIAN_POINT('',(-24.5,24.5,0.));
#595=CARTESIAN_POINT('',(-24.5,24.5,-5.45466392515022));
#596=CARTESIAN_POINT('',(-24.5,29.9546639251502,0.));
#597=CARTESIAN_POINT('',(-24.5,24.5,0.));
#598=CARTESIAN_POINT('',(-24.5,24.5,-7.21715728752538));
#599=CARTESIAN_POINT('',(-24.5,24.5,0.));
#600=CARTESIAN_POINT('',(-24.2171572875254,24.5,0.));
#601=CARTESIAN_POINT('',(-24.2171572875254,24.5,-7.5));
#602=CARTESIAN_POINT('',(3.5527136788005E-15,24.5,0.));
#603=CARTESIAN_POINT('',(-21.,24.5,0.));
#604=CARTESIAN_POINT('',(-21.,24.5,-7.5));
#605=CARTESIAN_POINT('',(-21.,32.,0.));
#606=CARTESIAN_POINT('',(0.,35.5,0.));
#607=CARTESIAN_POINT('',(15.,22.,11.));
#608=CARTESIAN_POINT('',(15.,22.,11.));
#609=CARTESIAN_POINT('',(0.,22.,0.));
#610=CARTESIAN_POINT('',(0.,22.,0.));
#611=CARTESIAN_POINT('',(-15.,22.,-11.));
#612=CARTESIAN_POINT('',(-15.,22.,-11.));
#613=CARTESIAN_POINT('',(0.,0.,0.));
#614=CARTESIAN_POINT('',(0.,0.635012808985341,0.));
#615=CARTESIAN_POINT('',(0.,0.635012808985341,4.81965111616487));
#616=CARTESIAN_POINT('',(0.,0.635012808985341,0.));
#617=CARTESIAN_POINT('',(0.,14.,0.));
#618=CARTESIAN_POINT('',(0.,14.,4.40240233881065));
#619=CARTESIAN_POINT('',(-4.40240233881065,14.,0.));
#620=CARTESIAN_POINT('',(0.,0.,0.));
#621=MECHANICAL_DESIGN_GEOMETRIC_PRESENTATION_REPRESENTATION('',(#325),
#622);
#622=(
GEOMETRIC_REPRESENTATION_CONTEXT(3)
GLOBAL_UNCERTAINTY_ASSIGNED_CONTEXT((#624))
GLOBAL_UNIT_ASSIGNED_CONTEXT((#628,#627,#626))
REPRESENTATION_CONTEXT('9798 SEU-1/8-NPT','TOP_LEVEL_ASSEMBLY_PART')
);
#623=(
GEOMETRIC_REPRESENTATION_CONTEXT(3)
GLOBAL_UNCERTAINTY_ASSIGNED_CONTEXT((#625))
GLOBAL_UNIT_ASSIGNED_CONTEXT((#628,#627,#626))
REPRESENTATION_CONTEXT('9798 SEU-1/8-NPT---(geh)','COMPONENT_PART')
);
#624=UNCERTAINTY_MEASURE_WITH_UNIT(LENGTH_MEASURE(0.005),#628,
'DISTANCE_ACCURACY_VALUE','Maximum Tolerance applied to model');
#625=UNCERTAINTY_MEASURE_WITH_UNIT(LENGTH_MEASURE(0.005),#628,
'DISTANCE_ACCURACY_VALUE','Maximum Tolerance applied to model');
#626=(
NAMED_UNIT(*)
SI_UNIT($,.STERADIAN.)
SOLID_ANGLE_UNIT()
);
#627=(
NAMED_UNIT(*)
PLANE_ANGLE_UNIT()
SI_UNIT($,.RADIAN.)
);
#628=(
LENGTH_UNIT()
NAMED_UNIT(*)
SI_UNIT(.MILLI.,.METRE.)
);
#629=PRODUCT_DEFINITION_SHAPE('','',#632);
#630=PRODUCT_DEFINITION_SHAPE('','',#633);
#631=PRODUCT_DEFINITION_SHAPE(' ','NAUO PRDDFN',#19);
#632=PRODUCT_DEFINITION('','',#636,#634);
#633=PRODUCT_DEFINITION('','',#637,#635);
#634=PRODUCT_DEFINITION_CONTEXT('',#647,'design');
#635=PRODUCT_DEFINITION_CONTEXT('',#647,'design');
#636=PRODUCT_DEFINITION_FORMATION_WITH_SPECIFIED_SOURCE('','',#640,
 .NOT_KNOWN.);
#637=PRODUCT_DEFINITION_FORMATION_WITH_SPECIFIED_SOURCE('','',#641,
 .NOT_KNOWN.);
#638=PRODUCT_RELATED_PRODUCT_CATEGORY('','',(#640));
#639=PRODUCT_RELATED_PRODUCT_CATEGORY('','',(#641));
#640=PRODUCT('9798 SEU-1/8-NPT','9798 SEU-1/8-NPT','9798 SEU-1/8-NPT',(#644));
#641=PRODUCT('9798 SEU-1/8-NPT---(geh)','9798 SEU-1/8-NPT---(geh)',
'9798 SEU-1/8-NPT---(geh)',(#645));
#642=PRODUCT_CATEGORY('','');
#643=PRODUCT_CATEGORY('','');
#644=PRODUCT_CONTEXT('',#647,'mechanical');
#645=PRODUCT_CONTEXT('',#647,'mechanical');
#646=APPLICATION_PROTOCOL_DEFINITION('international standard',
'automotive_design',2010,#647);
#647=APPLICATION_CONTEXT(
'core data for automotive mechanical design processes');
ENDSEC;
END-ISO-10303-21;
